Song name
# A B C D E F G H I J K L M N O P Q R S T U V W X Y Z

Tenacious D - Rize Of The Fenix tab

-------------------------------------------------------------------------------
                             Rize of the Fenix (solo) - Tenacious D
-------------------------------------------------------------------------------
Tabbed by: Andy King (treminaor)
E-mail: 1andyking1@gmail.com
Notes: Tabbed this really quickly by ear, hopefully there are no mistakes... so far this 
is the only tab of the solo that's on this site, so enjoy. Didn't find any YouTube 
videos either.

Tuning: E Standard

...They'll have to laser off the D tattoo... aww:
                                                         tremolo
e|-9--9--9--9--7------7---------7--------------7--9--7----7--7---------------|
B|----------------10-----10--8-----8--8--8--8-----------10-10-10-------------|
G|---------------------------------------------------------------------------|
D|---------------------------------------------------------------------------|
A|---------------------------------------------------------------------------|
E|---------------------------------------------------------------------------|
 slide                               slide
e|-----9------12--10--9--10--9--7------10--9--7------------------------------|
B|-10-----10-----------------------10-----------8--10------------------------|
G|---------------------------------------------------------------------------|
D|---------------------------------------------------------------------------|
A|---------------------------------------------------------------------------|
E|---------------------------------------------------------------------------|
Tap to rate this tab
# A B C D E F G H I J K L M N O P Q R S T U V W X Y Z