Song name
# A B C D E F G H I J K L M N O P Q R S T U V W X Y Z

Tenacious D - Rock Is Dead tab

Really cool solo, even if played slowly.
This is the way Konesky plays it in the corresponding Guitarings episode.
While slowly explaining he plays it slightly differently but then he falls back 
into this way when playing it faster:

4x
E|---------------------|
B|------10h13p10-------|
G|-12b-----------------|
D|---------------------|
A|---------------------|
E|---------------------|

E|-----10--------------|----------------------------------|---------|
B|-13b----13p10-13p10--|----13p10----10-------------------|---------|
G|---------------------|-12-------12-----12p10-12p10----10|-12p10---|
D|---------------------|-----------------------------12---|-------12|
A|---------------------|----------------------------------|---------|
E|---------------------|----------------------------------|---------|

4x
E|---------------------|
B|---------------------|
G|-12--12br-p10--------|
D|---------------12----|
A|---------------------|
E|---------------------|


E|---------------------|-13s14---------------------------|
B|-----------13--15----|--------15-13--------------------|  This is like a 
G|-10--12s14-----------|---------------14-12s10------10b-|< quarter step bend
D|---------------------|-------------------------12------|
A|---------------------|---------------------------------|
E|---------------------|---------------------------------|


E|------15-16-17-18----|-13s14------------------------------------|
B|-17b-----------------|-------15--13-----------------------------|
G|---------------------|--------------14--12s10-----12----10------|
D|---------------------|-------------------------12----12----12---|
A|---------------------|------------------------------------------|
E|---------------------|------------------------------------------|


E|---------------------|---------------------|---------------------|
B|---------------------|---------------------|---------------------|
G|----------------12---|----------------10---|-14---12-------------|
D|-10---12---10--------|-10---12---10--------|-13---11-------------|
A|---------------------|---------------------|-14---12-------------|
E|---------------------|---------------------|---------------------|
Tap to rate this tab
# A B C D E F G H I J K L M N O P Q R S T U V W X Y Z