Song name
# A B C D E F G H I J K L M N O P Q R S T U V W X Y Z

Tenacious D - Rock Is Dead tab

tabbed by me
standard tuning

e|-----------------------------------------------------------------------------|
B|-----------------------------------------------------------------------------|
G|-----------------------------------------------------------------------------|
D|--7-7-7-9-7-7-7-9-7-7-7-9-7-7-7-9-7-7-7-9-7-7-7-9-7-7-7-9-7-7-7-9------------|
A|--5-5-5-5-5-5-5-5-5-5-5-5-5-5-5-5-5-5-5-5-5-5-5-5-5-5-5-5-5-5-5-5------------|
E|-----------------------------------------------------------------------------|


e|---------------------------------------------------------------------------|
B|---------------------------------------------------------------------------|
G|---------------------------------------------------------------------------|
D|----------------------------------7-7-7-9-7-7-7-9-7-7-7-9-7-7-7-9----------|
A|-5-5-5-7-5-5-5-7-5-5-5-7-5-5-5-7--5-5-5-5-5-5-5-5-5-5-5-5-5-5-5-5----------|
E|-3-3-3-3-3-3-3-3-3-3-3-3-3-3-3-3-------------------------------------------|


e|---------------------------------------------------------------------------|
B|---------------------------------------------------------------------------|
G|---------------------------------------------------------------------------|
D|----------------------7-7--------------------------------------------------|
A|-7-7--------5-5-------5-5------7-7-----------------------------------------|
E|-5-5--------3-3----------------5-5-----------------------------------------|

you just repeat that for the entire song, exept for the ending.
hope this helps :D
Tap to rate this tab
 
# A B C D E F G H I J K L M N O P Q R S T U V W X Y Z