Song name
# A B C D E F G H I J K L M N O P Q R S T U V W X Y Z

Tenacious D - Ozzys Promo tab

This Is My First Tab But I watched The Commercial Many Of Times

-------------------------------------------------|
-------------------------------------------------|
-------------------------------------------------|
--3-/--5-5-5-5-5-**-7-7-/--8-8-8-8-/--7-7-/--5-5-|
--3-/--5-5-5-5-5-**-7-7-/--8-8-8-8-/--7-7-/--5-5-|
--1-/--3-3-3-3-3-**-5-5-/--6-6-6-6-/--5-5-/--3-3-|

solo
--1-/--3--3-3-3-3-3-/--5-5-/-6-6-6-6-6-/-5-5-/-3-1-3--|
--1-/--3--3-3-3-3-3-/--5-5-/-6-6-6-6-6-/-5-5-/-3-1-3--|
------------------------------------------------------|
------------------------------------------------------|
------------------------------------------------------|
------------------------------------------------------|
Tap to rate this tab
# A B C D E F G H I J K L M N O P Q R S T U V W X Y Z