Song name
# A B C D E F G H I J K L M N O P Q R S T U V W X Y Z

Tenacious D - Medely tab

Band:Tenacious D
Song:Medely (live)

E--2-2---2---2-----5-4-5---5-4-0------|
A------4---5---4-2--------2-----------|
D-------------------------------------| X2
G-------------------------------------|
B-------------------------------------|
e-------------------------------------|

Jack says ''sorry wrong song''And tells kyle to play this bit

E--------3----1----3----------|
A-0-------2----3----2---------|
D--2-------0----0----0--------|X2
G---2-0-----0----0----0-------|
B-----------------------------|
e-----------------------------|

This is my bands 1st tab on to the net so hope its right. Its sounds right. tell
me what you think at..leesony5@hotmail.com
Tap to rate this tab
# A B C D E F G H I J K L M N O P Q R S T U V W X Y Z