Song name
# A B C D E F G H I J K L M N O P Q R S T U V W X Y Z

Tenacious D - Papagenu Hes My Sassafrass tab

I noticed that the whole song wasn't on the site, only on power tab or guitar  pro.

Song: Papagenu ( Hes My Sassafrass )
Band: Tenacious D
Album: Tenacious D Move: Pick Of Destiny
Tabbed By: Blinkman5


This is a funny song from the tenacious d movie

e|----------------------------------|
B|----------------------------------|
G|-----------------7-77-7-x---------|
D|-7-77-7-x-55-5-5-7-77-7-x-55-5-5--|
A|-7-77-7-x-55-5-5-5-55-5-x-55-5-5--|
E|-5-55-5-x-33-3-3----------33-3-3--|
   1.              2.

1. Down where the sasquatch hide,
2. In the misty mountainside,

e|-----------------------------|
B|-----------------------------|
G|-----------------7-77-7-x----|
D|-7-77-7-x-55-5-5-7-77-7-x-5--|
A|-7-77-7-x-55-5-5-5-55-5-x-5--|
E|-5-55-5-x-33-3-3----------3--|
   3.              4.

3. He's got shiny diamonds that he's 
4. got to protect,

e|----------------------------------|
B|----------------------------------|
G|-----------------7-77-7-x---------|
D|-7-77-7-x-55-5-5-7-77-7-x-55-5-5--|
A|-7-77-7-x-55-5-5-5-55-5-x-55-5-5--|
E|-5-55-5-x-33-3-3----------33-3-3--|
   1.              2.

1. Look into the sasquatch eye,
2. Did you know that sass could fly?

e|-----------------------------|
B|-----------------------------|
G|-----------------7-77-7-x----|
D|-7-77-7-x-55-5-5-7-77-7-x-5--|
A|-7-77-7-x-55-5-5-5-55-5-x-5--|
E|-5-55-5-x-33-3-3----------3--|
   3.              4.

3. Sasquatch is my daddy and he's
4. going to protect, me!

e|----------------------------------|
B|----------------------------------|
G|-----------------7-77-7-x---------|
D|-7-77-7-x-55-5-5-7-77-7-x-55-5-5--|
A|-7-77-7-x-55-5-5-5-55-5-x-55-5-5--|
E|-5-55-5-x-33-3-3----------33-3-3--|
   1.              2.

1. Half man, half machine,
2. On the cover of a magazine,

e|-----------------------------|
B|-----------------------------|
G|-----------------7-77-7-x----|
D|-7-77-7-x-55-5-5-7-77-7-x-5--|
A|-7-77-7-x-55-5-5-5-55-5-x-5--|
E|-5-55-5-x-33-3-3----------3--|
   3.              4.

3. Bigfoot is my father and he's
4. got to protect, me!

e|----------------------------------|
B|----------------------------------|
G|-----------------7-77-7-x---------|
D|-7-77-7-x-55-5-5-7-77-7-x-55-5-5--|
A|-7-77-7-x-55-5-5-5-55-5-x-55-5-5--|
E|-5-55-5-x-33-3-3----------33-3-3--|
   1.              2.

1. These legends don't make sense,
2. Think i've found the evidence,

e|-----------------------------|
B|-----------------------------|
G|-----------------7-77-7-x----|
D|-7-77-7-x-55-5-5-7-77-7-x-5--|
A|-7-77-7-x-55-5-5-5-55-5-x-5--|
E|-5-55-5-x-33-3-3----------3--|
   3.              4.

3. The yeti is ma papa and he
4. wants to protect, me!

e------------------------------------------------------------------------|
B--------------------------------------------------15-15p12--------------|
G-14-12---------------------------------------12-14--------14-12-14b-14--|
D--------12-12p10--10h12-12-12\10--12/14\12/14---------------------------|
A----------------12--------------12--------------------------------------|
E------------------------------------------------------------------------|

e------------------------------------------------------------------|
B----15b15b15b15-( Repeat )-12-13-13-13--10-12-12-12--12-12-12-10--|
G------------------------------------------------------------------|
D------------------------------------------------------------------|
A------------------------------------------------------------------|
E------------------------------------------------------------------|




__________Lyrics_____________

Down where the sasquatch hide,
In the misty mountainside,
He's got shiny diamonds that he's got to protect,
Look into the sasquatch eye,
Did you know that sass could fly?
Sasquatch is my daddy and he's going to protect, me!
Half man, half machine,
On the cover of a magazine,
Bigfoot is my father and he's got to protect, me!
These legends don't make sense,
Think i've found the evidence,
The yeti is ma papa and he wants to protect, me!

Tap to rate this tab
# A B C D E F G H I J K L M N O P Q R S T U V W X Y Z