Song name
# A B C D E F G H I J K L M N O P Q R S T U V W X Y Z

Tenacious D - Government Totally Sucks tab

I have been working on this tab for qite a while. studying the deleted scene in the film 
this song in. And i think that i finally got it!

e-------------------------------------------------------------------------|
b-------------------------------------------------------------------------|
g------------------------------------------------------------------5------|
d-3-3-3-3-3-3-3-3-3-3-3--3-3-3--3-3-3-3-3-3-3-3--7-7-7-7-7-7-7-5-5-5-5-3--|
a-3-3-3-3-3-3-3-3-3-3-3--3-3-3--3-3-3-3-3-3-3-3--7-7-7-7-7-7-7-5-5-3-5-3--|
e-1-1-1-1-1-1-1-1-1-1-1--1-1-1--1-1-1-1-1-1-1-1--5-5-5-5-5-5-5-3-3---3-1--|
The government totally sucks you motherfucker. The government totally sucks.

Keep repeating that riff over all the talkingand singing.
e.g: 'their fucking up the environment(say what?) their taking all  the f...'
get it?

Now this part i am not quite sure of.
                                                     |'''''''''''''|
e---------------------------------------------------------------------|
b---1-1-1-1-1--1-1--1--1-1--1--1--------------------------------------|
g---2-2-2-2-2--2-2--2--2-2--2--2--------------------------------------|
d---2-2-2-2-2--2-2--2--2-2--2--2---7--7-7-7--7--7--5--7--7--7-7-7-7-7-|
a---0-0-0-0-0--0-0--0--0-0--0--0---7--7-7-7--7--7--5--7--7--7-7-7-7-7-|
e---0-0-0-0-0--0-0--0--0-0--0--0---5--5-5-5--5--5--3--5--5--5-5-5-5-5-|
In the land of love and freedom, is just a baby's breath away.


Thanks. Thats all i know but i think itspretty close.

key
|''''|-Use a (down, up, down, up) strum pattern for that bit.
Tap to rate this tab
# A B C D E F G H I J K L M N O P Q R S T U V W X Y Z