Song name
# A B C D E F G H I J K L M N O P Q R S T U V W X Y Z

Tenacious D - Car Chase City tab

Im pretty shure that this is right, but I think the orginal song sounds different.You will see :)
If you have any ideas or see something wrong, please send me a message.
This is all I know !!!

e|------------------------------------------------|
B|------------------------------------------------|
G|--14-12--5-7---777777---------------------------|
D|--14-12--5-7---777777--77-----------------------|
A|--12-10--3-5---555555--77-----------------------|
E|-----------------------55-----------------------|

lets rock, lets roll, car chase city patrol !!!


e|------------------------------------------------|
B|------------------------------------------------|
G|------------------------------------------------|
D|--777777777777777777777777777777777777777-------|
A|--777777777777777777777777777777777777777-------|
E|--555555555555555555555555555555555555555-------|

Car chase city, that's the name, of the game.
It was all groovy, now its totally lame!
KG really fucking, blew a synapse!
Now we're fucking,
Headed for a, total collapse!
(...)


e|------------------------------------------------|
B|------------------------------------------------|
G|------------------------------------------------|
D|--999999999999999999999999999999999999999-------|
A|--999999999999999999999999999999999999999-------|
E|--777777777777777777777777777777777777777-------|

Now it's getting hairy, so we're changin' the key.
Never underestimate, the power of D!


Tap to rate this tab
 
# A B C D E F G H I J K L M N O P Q R S T U V W X Y Z