Song name
# A B C D E F G H I J K L M N O P Q R S T U V W X Y Z

Tenhi - Kuolleesi Jokeen tab

Help us improve GuitareTab! Take a short survey!
----------------------------------------------------------------------------
			  Tenhi - Kuolleesi jokeen
----------------------------------------------------------------------------
Artist: Tenhi
Song: Kuolleesi jokeen
Album: Vre (2002)
http://www.tenhi.com/

Tabbed by: Jaakko Mntyranta
E-mail: pseudo.nyymi@mbnet.fi
Tuning: drop-D DADGBe

Same riff is repeated throughout the song. Listen to the song to
get the rhythm right. More guitar layers are added to the instrumental
part at the end of the song, but I didn't tab them here.

e-|------------------------------------------------------------------------|
B-|------------------------------------------------------------------------|
G-|--2h3p2-----2---------------2-----2-----2----2h3p2------2---------------|
D-|--------0-----------0h2h3h5---0-----0--------------0------0---2h3p2p0---|
A-|------------------------------------------------------------------------|
D-|----------0-----0-----------3---3-----3--------------0------0-----------|

e-|------------------------------------------------------------------------|
B-|------------------------------------------------------------------------|
G-|--0---2---3---0---------------------------------------------------------|
D-|----0---0---0---0-------3---3h5-2---2---2--/3---3h5-2---2---------------|
A-|--------------------------0-------0---0---0---0-------0---0-------------|
D-|--3-------5-------------------------------------------------------------|


Lyrics:

Heit kuolleesi jokeen
Kalmahiset kylve
Ky mielesi maille
Maan kutsu
Suomut silmistsi srje
Sydn sammuksiin
Sitten sulje silmut
Pivt menneet
Heit jo kuolleesi jokeen

[English translation]

Lay here the dead
Bathe in a brook
Seal the buds
Past days
All sorrow
All despair
Lay like the dead


===========================================================================
| /  slide up
| \  slide down
| h  hammer-on
| p  pull-off
| ~  vibrato
| +  harmonic
| x  Mute note
===========================================================================
Related for Kuolleesi Jokeen tab