Song name
# A B C D E F G H I J K L M N O P Q R S T U V W X Y Z

Tennis - Cape Dory tab

Note that this is an update to the original tab that was submitted by UrbanSprawl

Intro
E |-------------------------------------------------------------------------|
B |--9--7-------------------------------------------------------------------|
G |---9---9---6-------------------------------------------------------------|
D |-------------9---9---9---9-9---9-9---7/-11/9/11/9\7---7---7---7-7---7-7--|
A |-------------------------------------------------------------------------|
E |-------------------------------------------------------------------------|

Verse
E |-----------------------------------------------------------------------|
B |-----------------------------------------------------------------------|
G |--13-13-13-13-13-13-13--------------------------13-13-13-13-13-13-13---|
D |--14-14-14-14-14-14-14--------------------------14-14-14-14-14-14-14---|
A |--14-14-14-14-14-14-14------6-----6-------------14-14-14-14-14-14-14---|
E |-------------------------7----7-7---7----------------------------------|

E |-----------------------------------------------------------------------|
B |-----------------------------------------------------------------------|
G |------------------------13-13-13-13-13-13-13---------------------------|
D |------------------------14-14-14-14-14-14-14---------------------------|
A |----4------4------------14-14-14-14-14-14-14------6-------6------------|
E |--5----5-5--5-----------------------------------7----7--7---7----------|

E |-----------------------------------------------------|
B |-----------------------------------------------------|
G |--13-13-13-13-13-13-13-------------------------------|
D |--14-14-14-14-14-14-14-------------------------------|
A |--14-14-14-14-14-14-14----------4-------4------------|
E |----------------------------5------5---5---5---------|
Bridge
E |-----------------------------------------------------------|
B |-----------------------------------------------------------|
G |--6-6-6-6---8-8-8-8---13-13-13-13-13-13--------------------|
D |--7-7-7-7---9-9-9-9---14-13-14-14-14-14--------------------|
A |--7-7-7-7---9-9-9-9---14-14-14-14-14-14--------------------| repeats 
E |-----------------------------------------------------------|  follows the la-la-la's

Outro
E |-------------------------------------------------------------------------|
B |-------------------------------------------------------------------------|
G |-------------------------------------------------------------------------|
D |------2------2----/----4-------4-----/----9-------9---------9-------9----|
A |---4----4---4--4--/-6----6---6---6--/-11----11--11-11---11---11---11--11-|
E |-------------------------------------------------------------------------|

E |--------------------------------------------------|
B |--------------------------------------------------|
G |--------------------------------------------------|
D |------2-------2---/----4---------4----/-9---------|
A |---4---4---4---4-/-6-----6----6-----6-/-11--------|
E |--------------------------------------------------|
Tap to rate this tab
# A B C D E F G H I J K L M N O P Q R S T U V W X Y Z