Song name
# A B C D E F G H I J K L M N O P Q R S T U V W X Y Z

Tenniscoats - Baibaba Bimba tab

-------------------------------------------------------------------------------
                             Tenniscoats - Baibaba Bimba
-------------------------------------------------------------------------------
Tabbed by: Alessandro
E-mail: alley_the_surfer@hotmail.com

Tuning: Standard

Chords
Bm7add4: x20230
Dadd2/F#: 200230
G6: 320000
A7: x02020


Verse:

e|-----0-----------0-----------0-----------0--------------------------------|
B|-3-----3----3-----------2------3----2-------------------------------------|
G|---2-----2----2-----2-----2------2----2-----2-----------------------------|
D|-----------------0-----------------------0--------------------------------|
A|-2----------2-------------------------------------------------------------|
E|------------------------2-----------2-------------------------------------|

Chorus:

e|-----0-----------0-----------0-----------0---------------------------------|
B|-3-----3----2-----------0------0----2--------------------------------------|
G|---2-----2----2-----2-----0------0----0-----0------------------------------|
D|-----------------0-----------------------2---------------------------------|
A|-2----------------------------------0--------------------------------------|
E|------------2-----------3--------------------------------------------------|

Strumming:

Varations of the chords in the progession of the chorus.

http://www.tenniscoats.com/



Feel free to play around with hitting other notes in the verse and chorus to fill 
in more melodies.

Feedback appreciated :)


************************************

| /   slide up
| \   slide down
| h   hammer-on
| p   pull-off
| ~   vibrato
| +   harmonic
| x   Mute note
| b   Bend
| pb  Pre-bend
| br  Bend release
| pbr Pre-bend release
| brb Bend release bend

************************************
Tap to rate this tab
# A B C D E F G H I J K L M N O P Q R S T U V W X Y Z