Song name
# A B C D E F G H I J K L M N O P Q R S T U V W X Y Z

Tenniscoats - Baibaba Bimba tab

Hey, my first tab. Just wanted to upload a tab for the Take Away version of this from 
LaBlogOTheQue, as the other version of this tab is for the studio recording and far harder 
to play.

Standard tuning, no capo

Enjoy!

 * = Change of hold/position/chord, sliding from the previous hold for each change aside 
from 1st position to 2nd

Intro/Riff

Basically the song works in 4 positions/chords which are picked out; don't know what 
they're called, but these are the overall forms.

     1st     2nd     3rd     4th

E|---0---------------0-------0-------|
B|---3---------------0-------0-------|
G|---2-------2-------4-------6-------|
D|---0---------------5-------7-------|
A|---2-------------------------------|
E|-----------2-------3-------5-------|

The Riff
                  *   *            *        Back to Start
E|----0---------0-----------0-----------0---------|
B|-3----3---3---------------0-----------0---------|
G|---2---2----2---2---4------4-----6--------------|
D|-----------------------5------5----7------------|
A|-2--------2-------------------------------------|
E|----------------2---3------------5--------------|

This Riff plays throughout this entire version of the song, aside from the build up 
where he plays just the fingered notes of each chord before changing to strummed versions of 
each chord. Listen to the song to get the idea.


Hope it helps, feel free to post any suggestions/errors.
Tap to rate this tab
 
# A B C D E F G H I J K L M N O P Q R S T U V W X Y Z