Song name
# A B C D E F G H I J K L M N O P Q R S T U V W X Y Z

Tenth Avenue North - You Are More tab

                                                                            

e|---------------------------------------------------------------------------|
B|---------------------------------------------------------------------------|
G|-------0-------0----0------------------0-----------------------------------|
D|---------------------------------------------------------------------------|
A|---7-------7----------------------3----------------------------------------|
E|---------------------------------------------------------------------------|

e|---------------------------------------------------------------------------|
B|---------------------------------------------------------------------------|
G|---------0------0----------------------------------------------------------|
D|---------------------------------------------------------------------------|
A|----9-------9----------------5---------------------------------------------|
E|---------------------------------------------------------------------------|
Tap to rate this tab
 
# A B C D E F G H I J K L M N O P Q R S T U V W X Y Z