Song name
# A B C D E F G H I J K L M N O P Q R S T U V W X Y Z

Tenth Avenue North - House Of Mirrors tab

e|----11---11----11----11------12-----12-----12-----12--------|
B|------------------------------------------------------------|
G|------------------------------------------------------------|
D|-9----9-----9-----9-------9------9------9-------9-----------|
A|------------------------------------------------------------|
E|------------------------------------------------------------|

e|----9------9------9------9-----11----11-----11-----11-------|
B|------------------------------------------------------------|
G|------------------------------------------------------------|
D|-9-----9------9------9-----9------9------9------9-----------|
A|------------------------------------------------------------|
E|------------------------------------------------------------|
Tap to rate this tab
# A B C D E F G H I J K L M N O P Q R S T U V W X Y Z