Song name
# A B C D E F G H I J K L M N O P Q R S T U V W X Y Z

Tenth Avenue North - Love Is Here tab

-------------------------------------------------------------------------------
                            Love is Here by Tenth Avenue North
-------------------------------------------------------------------------------
It's tabbed relative to nut rather than the capo so it's easier to follow, but the capo 
is on the 4th fret.
I tried it a bit of delay and I think it sounds pretty close!

Tuning: Standard with Capo on 4th Fret

e|-----------------------------------------------------------------------------|
B|---------------4-----------------------4-----------------4-------------------|
G|--------11---------11-----------11-------11---------11-----11----------------|
D|-----9------9-----------9-----9-----9-------9-----9----9------9--------------|
A|--11-----------------------9-------------------7-----------------------------|
E|-----------------------------------------------------------------------------|

e|---------------------------------------------------------------------------|
B|----------4----------------------------------------------------------------|
G|-----11-----11-------------------------------------------------------------|
D|---9----9------9-----------------------------------------------------------|
A|-7-------------------------------------------------------------------------|
E|---------------------------------------------------------------------------|

Thanks and have a wonderful day.
Tap to rate this tab
# A B C D E F G H I J K L M N O P Q R S T U V W X Y Z