Song name
# A B C D E F G H I J K L M N O P Q R S T U V W X Y Z

Tenth Avenue North - Grace tab

Grace
Tenth Avenue North
The Struggle

Standard Tuning

e|-----------------------12h13-12h13-13p12------12-------12--13-15~---|
B|--------------------13------------------13~-----13~--13--13---------|
G|-----------------12-------------------------12----------------------|
D|-10-12-14--14h15----------------------------------------------------|
A|--------------------------------------------------------------------|
E|--------------------------------------------------------------------|

e|-12h13-15-20~--20\--------------------------------------------------|
B|--------------------------------------------------------------------|
G|--------------------19/17-17~---------------------------------------|
D|--------------------------------------------------------------------|
A|--------------------------------------------------------------------|
E|--------------------------------------------------------------------|
Tap to rate this tab
# A B C D E F G H I J K L M N O P Q R S T U V W X Y Z