Song name
# A B C D E F G H I J K L M N O P Q R S T U V W X Y Z

Tenth Avenue North - Worn tab

e-------------------------------------------------------------------------------|
B-2------2--------6-------6--------7-------7-------11-----------9---------------|
G----3-------3---------6-------6-------8-------8----------11---------10---------|
D--4---4---4---4----8---8---8---8---9---9---9---9------13----13---11----11------|
A-------------------------------------------------------------------------------|
E-------------------------------------------------------------------------------|

e-------------------------------------------------------------------------------|
B-2------2--------6-------6--------7-------7-------7-----------6----------------|
G----3-------3-------6-------6-------8-------8----------8---------6-------------|
D--4---4---4---4----8---8---8---8---9---9---9---9----9-----9----8----8----------|
A-------------------------------------------------------------------------------|
E-------------------------------------------------------------------------------|

Thank you :)
Tap to rate this tab
# A B C D E F G H I J K L M N O P Q R S T U V W X Y Z