Song name
# A B C D E F G H I J K L M N O P Q R S T U V W X Y Z

Tenth Avenue North - Worn tab

-------------------------------------------------------------------------------
                             WORN - Tenth Avenue North
-------------------------------------------------------------------------------
Tabbed by:purplia94
E-mail:imall4jesus@aol.com

Tuning: Standard Capo 6
-----------------------------------------------------------------------------
ORDER                  CHORD PROGRESSIONS
------                --------------------
INTRO                 INTRO & VERSES- C-Em-F-Am-G
VERSE 1
PRE-CHORUS            PRE-CHORUS- C-F-G
CHORUS
VERSE 2               CHORUS- F-C-G-Am-F-C-G
PRE-CHORUS
CHORUS                BRIDGE- F-C-G
BRIDGE
CHORUS
ENDING





INTRO & VERSE
Play through this twice for the intro, 4 times for verse one and 2 times for verse two.

e|------------------------------------------------------------------------------|
B|------------------------------------------------------------------------------|
G|----0-------0-------0-------0-------2-------2-------2-------0-----------------|
D|--2---2---2---2---2---2---2---2---3---3---3---3---2---2---0---0---------------|
A|-3------3---------------------------------------0-----------------------------|
E|----------------0-------0--------1------1----------------3--------------------|

PRE-CHORUS
Play though this twice.

e|------------------------------------------------------------------------------|
B|------------------------------------------------------------------------------|
G|-----0--------0--------2--------2------0-------0-------0-------0--------------|
D|---2---2----2---2----3---3---3---3---0---0---0---0---0---0---0---0------------|
A|-3--------3-------------------------------------------------------------------|
E|------------------1---------1------3-------3-------3------3-------------------|

CHORUS
Play through this twice.

e|---------------------------------------------------------------------------|
B|---------------------------------------------------------------------------|
G|-----2-------2-------0-------0-------0-------0-------2-------2-------2-----|
D|---3---3---3---3---2---2---2---2---0---0---0---0---2---2---2---2---3---3---|
A|-----------------3-------3-----------------------0-------0-----------------|
E|-1-------1-----------------------3-------3-----------------------1---------|

e|----------------------------------------------------------|----------------|
B|----------------------------------------------------------|----------------|
G|-----2-------0-------0-------0-------0-------0-------0----|--2--0--0-------|
D|---3---3---2---2---2---2---0---0---0---0---0---0---0---0--|--3--2--0-------|
A|---------3-------3----------------------------------------|-----3----------|
E|--1----------------------3-------3-------3-------3--------|--1-----3-------|

BRIDGE
Play through this 4 times. On the last "G" (eyes) play as if in the chorus and then 
slide right into the chorus.

e|---------------------------------------------------------------------------|
B|---------------------------------------------------------------------------|
G|--2---------0-------0------------------------------------------------------|
D|--3---------2-------0------------------------------------------------------|
A|------------3-3-3-3--------------------------------------------------------|
E|--1-1-1-1-----------3-3-3-3-3-3-3-3----------------------------------------|

ENDING


e|---------------------------------------------------------------------------|
B|---------------------------------------------------------------------------|
G|-----2-------2-------0-------0-------0-------0-------0-------0-------------|
D|---3---3---3---3---2---2---2---2---0---0---0---0---0---0---0---0-----------|
A|-----------------3-------3-------------------------------------------------|
E|-1-------1-----------------------3-------3-------3-------3-----------------| 
dead......... be..............reborn

e|---------------------------------------------------------------------------|
B|---------------------------------------------------------------------------|
G|------------2-0-0----------------2-----------------------------------------|
D|------------3-2-0----------------3-----------------------------------------|
A|--------------3------------------------------------------------------------|
E|------------1---3----------------1-----------------------------------------| Though 
I'm worn...... Yeah I'm worn.


************************************

| /   slide up
| \   slide down
| h   hammer-on
| p   pull-off
| ~   vibrato
| +   harmonic
| x   Mute note
| b   Bend
| pb  Pre-bend
| br  Bend release
| pbr Pre-bend release
| brb Bend release bend

************************************
Tap to rate this tab
 
# A B C D E F G H I J K L M N O P Q R S T U V W X Y Z