Song name
# A B C D E F G H I J K L M N O P Q R S T U V W X Y Z

Tenth Level Tauren Chieftain - Power Of The Horde tab

Tenth Level Tauren Cheiftans / Level 80 Elite Tauren Cheiftans

Power of the Horde!


Intro (Guitar 1)
e|----------------|-------------------------|------------------|
B|----------------|-------------------------|------------------|
G|----------------|-------------------------|------------------|
D|----------------|-------------------------|--7-----8-----3---|
A|-----7-8---8--7-|--8--7--8/10-8h-10p-8/7--|--7--0--8--0--3---|
E|--0-7----0--0---|-0--0--0-----------------|--5--0--6--0--1---|

Intro (Guitar 2)
e|----------------|-----------------------|------------------|
B|----------------|-----------------------|------------------|
G|----------------|-----------------------|------------------|
D|-----6-7--7--6--|---7--6--7/9-7h-9p-7/6-|--7-----8-----3---|
A|-0-7-----0--0---|-0--0--0---------------|--7--0--8--0--3---|
E|----------------|-----------------------|--5--0--6--0--1---|

Verse (Both Guitars)
e|---------------------------------------------------------------------------|
B|---------------------------------------------------------------------------|
G|---------------------------------------------------------------------------|
D|------2------2----2------2------3----------2-----2-----2------2------------|
A|------2------2----2------2--------2--------2-----2-----2------2------2-----|
E|--0-0-0--0-0-0--0-0--0-0-0--0-0-----1--0-0-0--0-0-0--0-0--0-0-0--0-0---1~--|

--------------------------------------------------------------------------|
--------------------------------------------------------------------------|
--------------------------------------------------------------------------|
------2------2----2------2------3----------2------2-------7----8----3-----|
------2------2----2------2--------2--------2------2-------7----8----3-----|
--0-0-0--0-0-0--0-0--0-0-0--0-0-----1--0-0-0--0-0-0--0-0--5--0-6--0-1-----|

(Verse Lick)
e|-------------------------------|
B|-------------------------------|
G|-----7-9-7-9^ -9^-9^-9---------|
D|-------------------------------|
A|-------------------------------|
E|-------------------------------|

Chorus (Both Guitars)
e|------------------------------------|-----------------------------------------|
B|------------------------------------|-----------------------------------------|
G|------9-----8-----7------6----------|-------9------8-------5-----6------------|
D|------9-----8-----7------6-------5--|-------9------8-------5-----6------5--2--|
A|------7-----6-----5------4-------5--|-------7------6-------3--0--4--0---5--2--|
E|--0-0---0-0---0-0----0-0-----0-0-3--|---0-0----0-0-----0-0----0-----0---3--0--|


Repeat Intro (Guitar 1)
e|----------------|-------------------------|------------------|
B|----------------|-------------------------|------------------|
G|----------------|-------------------------|------------------|
D|----------------|-------------------------|--7-----8-----3---|
A|-----7-8---8--7-|--8--7--8/10-8h-10p-8/7--|--7--0--8--0--3---|
E|--0-7----0--0---|-0--0--0-----------------|--5--0--6--0--1---|

Repeat Intro (Guitar 2)
e|----------------|-----------------------|------------------|
B|----------------|-----------------------|------------------|
G|----------------|-----------------------|------------------|
D|-----6-7--7--6--|---7--6--7/9-7h-9p-7/6-|--7-----8-----3---|
A|-0-7-----0--0---|-0--0--0---------------|--7--0--8--0--3---|
E|----------------|-----------------------|--5--0--6--0--1---|

Repeat Verse (Both Guitars)
e|---------------------------------------------------------------------------|
B|---------------------------------------------------------------------------|
G|---------------------------------------------------------------------------|
D|------2------2----2------2------3----------2-----2-----2------2------------|
A|------2------2----2------2--------2--------2-----2-----2------2------2-----|
E|--0-0-0--0-0-0--0-0--0-0-0--0-0-----1--0-0-0--0-0-0--0-0--0-0-0--0-0---1~--|

--------------------------------------------------------------------------|
--------------------------------------------------------------------------|
--------------------------------------------------------------------------|
------2------2----2------2------3----------2------2-------7----8----3-----|
------2------2----2------2--------2--------2------2-------7----8----3-----|
--0-0-0--0-0-0--0-0--0-0-0--0-0-----1--0-0-0--0-0-0--0-0--5--0-6--0-1-----|

(Verse Lick)
e|-------------------------------|
B|-------------------------------|
G|-----7-9-7-9^ -9^-9^-9---------|
D|-------------------------------|
A|-------------------------------|
E|-------------------------------|

Repeat Chorus (Both Guitars)
e|------------------------------------|-----------------------------------------|
B|------------------------------------|-----------------------------------------|
G|------9-----8-----7------6----------|-------9------8-------5-----6------------|
D|------9-----8-----7------6-------5--|-------9------8-------5-----6------5--2--|
A|------7-----6-----5------4-------5--|-------7------6-------3--0--4--0---5--2--|
E|--0-0---0-0---0-0----0-0-----0-0-3--|---0-0----0-0-----0-0----0-----0---3--0--|

Bridge (Guitar 1)
e|-------------------------------------------------------------------|
B|-------------------------------------------------------------------|
G|--7~--9--11----9~--11--12-----7~--9--11--12~ 16~ 15-16-15~---------|
D|------------9~------------11~------------------------------8-9-8~--|
A|-------------------------------------------------------------------|
E|-------------------------------------------------------------------|

Bridge (Guitar 2)
e|-----------------------------------------------------------------|
B|-----------------------------------------------------------------|
G|-----------------------------------------------------------------|
D|-----------------------------------------------------------------|
A|-5~--7--9----7~--9--10----5~--7--9--10~--14~--13-14-13~----------|
E|----------7~------------9~------------------------------6-7-6~---|

Solo
e|-t19p14p10h14p10h14t19p14p10h14p10h14t19p14p10h14t-|
B|---------------------------------------------------|
G|---------------------------------------------------|
D|---------------------------------------------------|
A|---------------------------------------------------|
E|---------------------------------------------------|

21p15p10h15p10h15t21p15p10h15p10h15t21p15p10h15-|-21^-|
------------------------------------------------|-----|
------------------------------------------------|-----|
------------------------------------------------|-----|
------------------------------------------------|-----|
------------------------------------------------|-----|

-t17p12p9h12p9h12t17p12p9h12p9h12t1712p9h12t18p14p10h14p10h14t1814p10h14p10h14t1814p10h14-
------------------------------------------------------------------------------------------|
------------------------------------------------------------------------------------------|
------------------------------------------------------------------------------------------|
------------------------------------------------------------------------------------------|
------------------------------------------------------------------------------------------|

-14-15-17-15-14----14------------------------------------------------------------------|
----------------17----17-15-14-15-14---------------------------------------------------|
-------------------------------------16~-----------------------------------------------|
--------------------------------------------------------------------12-14-16-16/17-16~-|
---------------------------------------------------12-14-16-12-14-16-------------------|
------------------------------------------12-14-16-------------------------------------|

------------------------------------------------------------------------------------------------|
-------------15-15^-14-14----14-----------------------------------------------------------------|
----16-14-16--------------16~--16---------------------------------------------------------------|
-17---------------------------------------------------------------------------------------------|
-----------------------------------14h-16p-14h-16p-14-13h-14p-13h-14p-13-12h-13p-12h-13p-12~----|
------------------------------------------------------------------------------------------------|

---------14-15-17-15-14---14----------------------------------|
-17^-17^----------------17---17-15-14-15-14----------14-15-17-|
--------------------------------------------16~-14-16---------|
--------------------------------------------------------------|
--------------------------------------------------------------|
--------------------------------------------------------------|

14-17^-15^-13h-15h-17h-19p-17p-15p-13/12~-12-13-12~---|
------------------------------------------------------|
------------------------------------------------------|
------------------------------------------------------|
------------------------------------------------------|
------------------------------------------------------|


Repeat Verse (Both Guitars)
e|---------------------------------------------------------------------------|
B|---------------------------------------------------------------------------|
G|---------------------------------------------------------------------------|
D|------2------2----2------2------3----------2-----2-----2------2------------|
A|------2------2----2------2--------2--------2-----2-----2------2------2-----|
E|--0-0-0--0-0-0--0-0--0-0-0--0-0-----1--0-0-0--0-0-0--0-0--0-0-0--0-0---1~--|

--------------------------------------------------------------------------|
--------------------------------------------------------------------------|
--------------------------------------------------------------------------|
------2------2----2------2------3----------2------2-------7----8----3-----|
------2------2----2------2--------2--------2------2-------7----8----3-----|
--0-0-0--0-0-0--0-0--0-0-0--0-0-----1--0-0-0--0-0-0--0-0--5--0-6--0-1-----|

(Verse Lick)
e|-------------------------------|
B|-------------------------------|
G|-----7-9-7-9^ -9^-9^-9---------|
D|-------------------------------|
A|-------------------------------|
E|-------------------------------|

Repeat Chorus (Both Guitars)
e|------------------------------------|-----------------------------------------|
B|------------------------------------|-----------------------------------------|
G|------9-----8-----7------6----------|-------9------8-------5-----6------------|
D|------9-----8-----7------6-------5--|-------9------8-------5-----6------5--2--|
A|------7-----6-----5------4-------5--|-------7------6-------3--0--4--0---5--2--|
E|--0-0---0-0---0-0----0-0-----0-0-3--|---0-0----0-0-----0-0----0-----0---3--0--|

Outro
e|---------------------------------|
B|---------------------------------|
G|------9-----8-----7------6-------|
D|------9-----8-----7------6-----5-|
A|------7-----6-----5------4-----5-|
E|--0-0---0-0---0-0----0-0---0-0-3-|

----------------------------------------------------------------|
----------------------------------------------------------------|
-------9-----8------5-----6------5-----6-------5-----6----------|
-------9-----8------5-----6------5-----6-------5-----6-----5--2-|
-------7-----6------3--0--4--0-0-3--0--4--0-0--3--0--4--0--5--2-|
---0-0---0-0----0-0----0-----0-0----0-----0-0-----0-----0--3--0-|
Tap to rate this tab
 
# A B C D E F G H I J K L M N O P Q R S T U V W X Y Z