Song name
# A B C D E F G H I J K L M N O P Q R S T U V W X Y Z

Tenth Level Tauren Chieftain - Power Of The Horde tab

I did not tab this song, someone did it for me. I am just putting it online for others.
e-mail: andioge@gmail.com

tuning: standard (eadgbe)
Note: All 0's are palm muted unless they are in a chord.

Intro:
|----------------------------------------------------------|
|----------------------------------------------------------|
|----------------------------------------------------------|
|----------------------------------------------------------|
|-------7-8---8---7----8----7---10---8-10-8-7--------------|
|---0-7-----0---0----0----0---0----------------------------|

|----------------------------------------------------------|
|----------------------------------------------------------|
|----------------------------------------------------------|
|--------------------7--8--3-------------------------------|
|-------7-8---8---7--7--8--3-------------------------------|
|---0-7-----0---0----5--6--1-------------------------------|


Verse:
|----------------------------------------------------------|
|----------------------------------------------------------|
|----------------------------------------------------------|
|----------------------------------------------------------|
|-------2------2---2--------2-----3------------------------|
|---0-0-0-00-0-0-0-0----0-0-0-0-0---1----------------------|

|----------------------------------------------------------|
|----------------------------------------------------------|
|----------------------------------------------------------|
|---------------------------------3------------------------|
|-------2------2---2--------2-------2----------------------|
|---0-0-0-00-0-0-0-0----0-0-0-0-0-----1--------------------|

|----------------------------------------------------------|
|----------------------------------------------------------|
|----------------------------------------------------------|
|----------------------------------------------------------|
|-------2------2---2--------2-----3------------------------|
|---0-0-0-00-0-0-0-0----0-0-0-0-0---1----------------------|

|----------------------------------------------------------|
|----------------------------------------------------------|
|-----------------------2---3------------------------------|
|-----------------------2---3---3--------------------------|
|-------2------2---2----0---1---3--------------------------|
|---0-0-0-00-0-0-0-0------------1--------------------------|

Chorus:
|----------------------------------------------------------|
|----------------------------------------------------------|
|----------------------------------------------------------|
|-------9-----8-----7-----6--------------------------------|
|-------7-----6-----5-----4--------------------------------|
|---0-0---0-0---0-0---0-0---0-0-6--------------------------|

Repeat 3 times, times, then:

|----------------------------------------------------------|
|----------------------------------------------------------|
|-------------------5---6----------------------------------|
|-------9-----8-----5---6---5------------------------------|
|-------7-----6-----3---4---5------------------------------|
|---0-0---0-0---0-0---------3------------------------------|

Bridge:

|----------------------------------------------------------|
|----------------------------------------------------------|
|----------------------------------------------------------|
|---222222224444444455555555-------------------------------|
|---222222224444444455555555-------------------------------|
|---000000002222222233333333-------------------------------|

The solo, including the easier part at the beginning, I do not have at the moment. I may
it up later. After the solo ends, it is just repeating the verse again for a bit, then
chorus, and at the end of the song the chorus is repeating, then the very end is the 
few chords of the chorus being repeated, you should be able to figure it out by
to it.
Tap to rate this tab
# A B C D E F G H I J K L M N O P Q R S T U V W X Y Z