Song name
# A B C D E F G H I J K L M N O P Q R S T U V W X Y Z

Teoman - Istabulda Son Bahar tab

mevsim rüzgarları                   ne zaman eserse         o zaman
                                                                  hatırlarım
E||-------------------|-----------0-----------0--|-----------1-----------1--|
B||-------------------|--------1-----1-----1-----|--------3-----3-----3-----|
G||-------------------|-----2-----------2--------|-----2-----------2--------|
D||-------------------|--------------------------|--0-----------------------|
A||-------------------|--0-----------------------|--------------------------|
E||-------------------|--------------------------|--------------------------|


              çocukluk rüyalarım         şeytan uçurtmalarım
E|----------0-----------0-|----------3-----------3-|---------0-----------0--|
B|-------1-----1-----1----|--------0-----3-----3---|-------1-----1-----1----|
G|----2-----------2-------|-----0-----------4------|----2-----------2-------|
D|------------------------|------------------------|------------------------|
A|-0----------------------|------------------------|-0----------------------|
E|------------------------|--3---------------------|------------------------|


              öper beni annem           yanaklarımdan              güzel bir
                                                                      rüyada
E|----------0-----------0-|----------0-----------0-|----------1-----------1-|
B|-------1-----1-----1----|-------1-----1-----1----|-------3-----3-----3----|
G|----2-----------2-------|----2-----------2-------|----2-----------2-------|
D|------------------------|------------------------|-0----------------------|
A|-0----------------------|-0----------------------|------------------------|
E|------------------------|------------------------|------------------------|


               sanki sevdiklerim         hayattalarken hala
E|----------0-----------0-|----------3-----------3-|----------0--0--------0-|
B|-------1-----1-----1----|-------0-----0-----0----|-------1-----1-----1----|
G|----2-----------2-------|----0-----------0-------|----2-----------2-------|
D|------------------------|------------------------|------------------------|
A|-0----------------------|------------------------|-0----------------------|
E|------------------------|-3----------------------|------------------------|


                                         akşama doğru              azalırsa 
                                                                       yağmur
E|----------0-----------0-|----------1-----------1-|----------0-----------0-|
B|-------1-----------1----|-------3-----3-----3----|-------1-----1-----1----|
G|----0-----------0-------|----2-----------2-------|----2-----------2-------|
D|------------------------|-0----------------------|------------------------|
A|-2-----------3----------|------------------------|-0----------------------|
E|------------------------|------------------------|------------------------|


             kız kulesi    ve    adalar                           ah burda
                                                                        olsan
E|----------1-----------1-|----------0-----------0-|----------1-----------1-|
B|-------3-----3-----3----|-------1-----1-----1----|-------3-----3-----3----|
G|----2-----------2-------|----2-----------2-------|----2-----------2-------|
D|-0----------------------|------------------------|-0----------------------|
A|------------------------|-0----------------------|------------------------|
E|------------------------|------------------------|------------------------|


             çok güzel hala           istanbul'da  sonbahar
E|----------0-----------0-|------------3------|----|----------0-----------0-|
B|-------1-----1-----1----|-------3----3------|----|-------1-----1-----1----|
G|----2-----------2-------|----4-------4------|----|----2-----------2-------|
D|------------------------|-5----------5------|----|------------------------|
A|-0----------------------|-------------------|----|-0----------------------|
E|------------------------|-------------------|----|------------------------|


        ( Piyano giriş...) 
E|----------0--------5--0-|----------1-----------1-|----------1-----------1-|
B|-------1-----1----------|-------3-----3-----3----|-------3-----3-----3----|
G|----2-----------2-------|----2-----------2-------|----2-----------2-------|
D|------------------------|-0----------------------|-0----------------------|
A|-0----------------------|------------------------|------------------------|
E|------------------------|------------------------|------------------------|



E|----------0-----------0-|----------0-----------0-|----------1-----------1-|
B|-------1-----1-----1----|-------1-----1-----1----|-------3-----3-----3----|
G|----2-----------2-------|----2-----------2-------|----2-----------2-------|
D|------------------------|------------------------|-0----------------------|
A|-0----------------------|-0----------------------|------------------------|
E|------------------------|------------------------|------------------------|


                                                                 her zaman
                                                                  kolay değil
E|----------1-----------1-|----------0-----------0-|---------0-----------0--|
B|-------3-----3-----3----|-------1-----1-----1----|------1-----1-----1-----|
G|----2-----------2-------|----2-----------2-------|---2-----------2--------|
D|-0----------------------|------------------------|------------------------|
A|------------------------|-0----------------------|-0----------------------|
E|------------------------|------------------------|------------------------|


              sevmeden sevişmek           tanımak bir vücudu       yavaşça
                                                                     öğrenmek
E|----------0-----------0-|----------1-----------1-|---------0-----------0--|
B|-------1-----1-----1----|-------3-----3-----3----|------1-----1-----1-----|
G|----2-----------2-------|----2-----------2-------|---2-----------2--------|
D|------------------------|-0----------------------|------------------------|
A|-0----------------------|------------------------|-0----------------------|
E|------------------------|------------------------|------------------------|


              alışmak     ve       kaybetmek                    istanbul 
                                                                 bugün yorgun
E|----------3-----------3-|----------0-----------0-|---------0-----------0--|
B|-------0-----0-----0----|-------1-----1-----1----|------1-----1-----1-----|
G|----0-----------0-------|----2-----------2-------|---2-----------2--------|
D|------------------------|------------------------|------------------------|
A|------------------------|-0----------------------|-0----------------------|
E|-3----------------------|------------------------|------------------------|


             üzgün ve yaşlanmış         biraz kilo almış             ağlamış 
                                                                         yine
E|----------0-----------0-|----------1-----------1-|---------0-----------0--|
B|-------1-----1-----1----|-------3-----3-----3----|------1-----1-----1-----|
G|----2-----------2-------|----2-----------2-------|---2-----------2--------|
D|------------------------|-0----------------------|------------------------|
A|-0----------------------|------------------------|-0----------------------|
E|------------------------|------------------------|------------------------|


                  rimelleri        akıyor
E|----------3-----------3-|----------0--0--------0-|---------0-----------0--|
B|-------0-----0-----0----|-------1-----1-----1----|------1-----------1-----|
G|----0-----------0-------|----2-----------2-------|---0-----------0--------|
D|------------------------|------------------------|------------------------|
A|------------------------|-0----------------------|-2----------3-----------|
E|-3----------------------|------------------------|------------------------|


             akşama doğru                azalırsa yağmur          kız kulesi 
                                                                    ve adalar
E|----------1-----------1-|----------0-----------0-|---------1-----------1--|
B|-------3-----3-----3----|-------1-----1-----1----|------3-----3-----3-----|
G|----2-----------2-------|----2-----------2-------|---2-----------2--------|
D|-0----------------------|------------------------|-0----------------------|
A|------------------------|-0----------------------|------------------------|
E|------------------------|------------------------|------------------------|


                                        ah burda olsan           çok güzel 
                                                                         hala
E|----------0-----------0-|----------1-----------1-|---------0-----------0--|
B|-------1-----1-----1----|-------3-----3-----3----|------1-----1-----1-----|
G|----2-----------2-------|----2-----------2-------|---2-----------2--------|
D|------------------------|-0----------------------|------------------------|
A|-0----------------------|------------------------|-0----------------------|
E|------------------------|------------------------|------------------------|

      istanbul'da     sonbahar
E|------------3---|-------|----------0-----------0-|---------0-----------0--|
B|-------3----3---|-------|-------1-----1-----1----|------1-----------1-----|
G|----4-------4---|-------|----2-----------2-------|---0-----------0--------|
D|-5----------5---|-------|------------------------|------------------------|
A|----------------|-------|-0----------------------|-2----------3-----------|
E|----------------|-------|------------------------|------------------------|


             akşama doğru                azalırsa yağmur            kız 
                                                             kulesi ve adalar
E|----------1-----------1-|----------0-----------0-|---------1-----------1--|
B|-------3-----3-----3----|-------1-----1-----1----|------3-----3-----3-----|
G|----2-----------2-------|----2-----------2-------|---2-----------2--------|
D|-0----------------------|------------------------|-0----------------------|
A|------------------------|-0----------------------|------------------------|
E|------------------------|------------------------|------------------------|


                                        ah burda olsan             çok güzel 
                                                                         hala
E|----------0-----------0-|----------1-----------1-|---------0-----------0--|
B|-------1-----1-----1----|-------3-----3-----3----|------1-----1-----1-----|
G|----2-----------2-------|----2-----------2-------|---2-----------2--------|
D|------------------------|-0----------------------|------------------------|
A|-0----------------------|------------------------|-0----------------------|
E|------------------------|------------------------|------------------------|


     istanbul'da     sonbahar             ( Piyano giriş...) 
E|------------3---|-------|----------0-----------0-|---------0--------5--0--|
B|-------3----3---|-------|-------1-----1-----1----|------1-----1-----------|
G|----4-------4---|-------|----2-----------2-------|---2-----------2--------|
D|-5----------5---|-------|------------------------|------------------------|
A|----------------|-------|-0----------------------|-0----------------------|
E|----------------|-------|------------------------|------------------------|

     
E|----------1-----------1-|----------1-----------1-|---------0-----------0--|
B|-------3-----3-----3----|-------3-----3-----3----|------1-----1-----1-----|
G|----2-----------2-------|----2-----------2-------|---2-----------2--------|
D|-0----------------------|-0----------------------|------------------------|
A|------------------------|------------------------|-0----------------------|
E|------------------------|------------------------|------------------------|



E|----------0-----------0-|----------1-----------1-|---------1-----------1--|
B|-------1-----1-----1----|-------3-----3-----3----|------3-----3-----3-----|
G|----2-----------2-------|----2-----------2-------|---2-----------2--------|
D|------------------------|-0----------------------|-0----------------------|
A|-0----------------------|------------------------|------------------------|
E|------------------------|------------------------|------------------------|
Tap to rate this tab
# A B C D E F G H I J K L M N O P Q R S T U V W X Y Z