Song name
# A B C D E F G H I J K L M N O P Q R S T U V W X Y Z

Teoman - Istanbulda Sonbahar tab

Help us improve GuitareTab! Take a short survey!
Teoman - Istanbul'da Sonbahar

Standart Tuning

Verse 1:

E|----------0-----------0-|----------1-----------1-|----------0-----------0-|----------3-----------3-|
B|-------1-----1-----1----|-------3-----3-----3----|-------1-----1-----1----|-------0-----0-----0----|
G|----2-----------2-------|----2-----------2-------|----2-----------2-------|----0-----------0-------|
D|------------------------|-0----------------------|------------------------|------------------------|
A|-0----------------------|------------------------|-0----------------------|------------------------|
E|------------------------|------------------------|------------------------|-3----------------------|

Mevsim ruzgarlari, nezaman eserse,    ozaman hatirlarim,      cocukluk ruyalarim, seytan

E|----------0-----------0-|----------0-----------0-|----------0-----------0-|----------1-----------1-|
B|-------1-----1-----1----|-------1-----1-----1----|-------1-----1-----1----|-------3-----3-----3----|
G|----2-----------2-------|----2-----------2-------|----2-----------2-------|----2-----------2-------|
D|------------------------|------------------------|------------------------|-0----------------------|
A|-0----------------------|-0----------------------|-0----------------------|------------------------|
E|------------------------|------------------------|------------------------|------------------------|

ucurtmalarim.				Oper beni annem,	  yanaklarimdan, 	    guzel bir

E|----------0-----------0-|----------3-----------3-|----------0-----------0-|----------0-----------0-|
B|-------1-----1-----1----|-------0-----0-----0----|-------1-----1-----1----|-------1-----------1----|
G|----2-----------2-------|----0-----------0-------|----2-----------2-------|----0-----------0-------|
D|------------------------|------------------------|------------------------|------------------------|
A|-0----------------------|------------------------|-0----------------------|-2-----------3----------|
E|------------------------|-3----------------------|------------------------|------------------------|

ruyada,      sanki sevdiklerim,    hayattalarken hala.

Chorus:

E|----------1-----------1-|----------0-------------|------------------------|----------0----------4--|
B|-------3-----3-----3----|-------1-----1-----1----|------------------------|-------1-------------3-(|
G|----2-----------2-------|----2-----------2-------|---------X--3-----------|----2----------------4--|
D|-0----------------------|------------------------|------------------------|-3-------------------3--|
A|------------------------|-0----------------------|------------------------|-----------------------(|
E|------------------------|------------------------|------------------------|------------------------|

	Aksama doguru	      azalirsa yagmur				     		Istanbul'da
        kiz kulesi ve 	      adalar
        ah burda olsan        cok guzel hala


E|----------0-----------0-|----------0-----------0-|----------1-----------1-|----------1-----------1-|
B|)------1-----1-----1----|-------1-----1-----1----|-------3-----3-----3----|-------3-----3-----3----|
G|----2-----------2-------|----2-----------2-------|----2-----------2-------|----2-----------2-------|
D|------------------------|------------------------|-0----------------------|-0----------------------|
A|)0----------------------|-0----------------------|------------------------|------------------------|
E|------------------------|------------------------|------------------------|------------------------|
 | Sonbahar.
 |
E|------------------------|-----------5--7-----5---|--6---------------------|------------------------|
B|)-----------------------|------------------------|------------------------|------------------------|
G|------------------------|------------------------|------------------------|------------------------|
D|------------------------|------------------------|------------------------|------------------------|
A|)-----------------------|------------------------|------------------------|------------------------|
E|------------------------|------------------------|------------------------|------------------------|


E|----------0-----------0-|----------0-----------0-|----------1-----------1-|----------1-----------1-|
B|-------1-----1-----1----|-------1-----1-----1----|-------3-----3-----3----|-------3-----3-----3---(|
G|----2-----------2-------|----2-----------2-------|----2-----------2-------|----2-----------2-------|
D|------------------------|------------------------|-0----------------------|-0----------------------|
A|-0----------------------|-0----------------------|------------------------|-----------------------(|
E|------------------------|------------------------|------------------------|------------------------|
 |
 |
E|------------------------|-----------5------------|------------------------|------------------------|
D|------------------------|--------------8---------|--5---------------------|-----------------------(|
G|------------------------|--------------------7---|------------------------|------------------------|
D|------------------------|------------------------|------------------------|------------------------|
A|------------------------|------------------------|------------------------|-----------------------(|
E|------------------------|------------------------|------------------------|------------------------|


Verse 2:

E|----------0-----------0-|----------1-----------1-|----------0-----------0-|----------3-----------3-|
B|-------1-----1-----1----|-------3-----3-----3----|-------1-----1-----1----|-------0-----0-----0----|
G|----2-----------2-------|----2-----------2-------|----2-----------2-------|----0-----------0-------|
D|------------------------|-0----------------------|------------------------|------------------------|
A|-0----------------------|------------------------|-0----------------------|------------------------|
E|------------------------|------------------------|------------------------|-3----------------------|

Herzaman kolay dehil, sevmeden sevismek, tanimak bir vicudu,   yavasca ogrenmek, alismak ve

E|----------0-----------0-|----------0-----------0-|----------0-----------0-|----------1-----------1-|
B|-------1-----1-----1----|-------1-----1-----1----|-------1-----1-----1----|-------3-----3-----3----|
G|----2-----------2-------|----2-----------2-------|----2-----------2-------|----2-----------2-------|
D|------------------------|------------------------|------------------------|-0----------------------|
A|-0----------------------|-0----------------------|-0----------------------|------------------------|
E|------------------------|------------------------|------------------------|------------------------|

kaybetmek. 			Istanbul bugun yorgun,   uzgun ve yaslanmis	     biraz kilo

E|----------0-----------0-|----------3-----------3-|----------0-----------0-|----------0-----------0-|
B|-------1-----1-----1----|-------0-----0-----0----|-------1-----1-----1----|)------1-----------1----|
G|----2-----------2-------|----0-----------0-------|----2-----------2-------|----0-----------0-------|
D|------------------------|------------------------|------------------------|------------------------|
A|-0----------------------|------------------------|-0----------------------|)2-----------3----------|
E|------------------------|-3----------------------|------------------------|------------------------|

almis		 aglamis yine	      rimelleri akiyor.


Chorus:

E|----------1-----------1-|----------0-------------|------------------------|----------0----------4--|
B|-------3-----3-----3----|-------1-----1-----1----|------------------------|-------1-------------3-(|
G|----2-----------2-------|----2-----------2-------|---------X--3-----------|----2----------------4--|
D|-0----------------------|------------------------|------------------------|-3-------------------3--|
A|------------------------|-0----------------------|------------------------|-----------------------(|
E|------------------------|------------------------|------------------------|------------------------|

	Aksama doguru	      azalirsa yagmur				     		Istanbul'da
        kiz kulesi ve 	      adalar
        ah burda olsan        cok guzel hala


E|----------0-----------0-|----------0-----------0-|----------1-----------1-|----------1-----------1-|
B|)------1-----1-----1----|-------1-----1-----1----|-------3-----3-----3----|-------3-----3-----3----|
G|----2-----------2-------|----2-----------2-------|----2-----------2-------|----2-----------2-------|
D|------------------------|------------------------|-0----------------------|-0----------------------|
A|)0----------------------|-0----------------------|------------------------|------------------------|
E|------------------------|------------------------|------------------------|------------------------|
 | Sonbahar
 |
E|------------------------|-----------5--7-----5---|--6---------------------|------------------------|
B|)-----------------------|------------------------|------------------------|------------------------|
G|------------------------|------------------------|------------------------|------------------------|
D|------------------------|------------------------|------------------------|------------------------|
A|)-----------------------|------------------------|------------------------|------------------------|
E|------------------------|------------------------|------------------------|------------------------|


E|----------0-----------0-|----------0-----------0-|----------1-----------1-|----------1-----------1-|
B|-------1-----1-----1----|-------1-----1-----1----|-------3-----3-----3----|-------3-----3-----3---(|
G|----2-----------2-------|----2-----------2-------|----2-----------2-------|----2-----------2-------|
D|------------------------|------------------------|-0----------------------|-0----------------------|
A|-0----------------------|-0----------------------|------------------------|-----------------------(|
E|------------------------|------------------------|------------------------|------------------------|
 |
 |
E|------------------------|-----------5------------|------------------------|------------------------||
D|------------------------|--------------8---------|--5---------------------|-----------------------(||
G|------------------------|--------------------7---|------------------------|------------------------||
D|------------------------|------------------------|------------------------|------------------------||
A|------------------------|------------------------|------------------------|-----------------------(||
E|------------------------|------------------------|------------------------|------------------------||
Related for Istanbulda Sonbahar tab