Song name
# A B C D E F G H I J K L M N O P Q R S T U V W X Y Z

Teoman - Gemiler tab

e-----------------------------------------|
B-----3--2--0--0h2-5------7--7\3--3--5~---|
G-----------------------------------------|
D--4------------------4-------------------|
A-----------------------------------------|
E-----------------------------------------|

e------------------------------------------|
B-----3--2--0--0h2-5------7--7\3~----------|
G------------------------------------------|
D--4------------------4--------------------|
A------------------------------------------|
E----------------------------------2b3r2-0-|
Tap to rate this tab
# A B C D E F G H I J K L M N O P Q R S T U V W X Y Z