Song name
# A B C D E F G H I J K L M N O P Q R S T U V W X Y Z

Tequila Baby - 2x2 chords

Highlighted       Show chord diagrams
http://www.tequilababy.com.br/

INTRO (A D A E) OU RIFF 4X

RIFF:
E|-----------------------------------------------|
B|-----------------------------------------------|
G|--------------------------7--7--7--7--7--7--7--|
D|---7--7--7--7--7--7--7----7--7--7--7--7--7--7--|
A|---7--7--7--7--7--7--7----5--5--5--5--5--5--5--|
E|---5--5--5--5--5--5--5-------------------------|

E|-----------------------------------------------|
B|-----------------------------------------------|
G|--------------------------9--9--9--9--9--9--9--|
D|---7--7--7--7--7--7--7----9--9--9--9--9--9--9--|
A|---7--7--7--7--7--7--7----7--7--7--7--7--7--7--|
E|---5--5--5--5--5--5--5-------------------------|

Repete 2X:

 A      D                 A          E      
2x2 mede o quarto da empregada
 A            D              A               E
Pra mim ele vale muito mas para os outros não vale nada
  A            D           A            E
O quarto da empregada não tem janela e não tem nada
  A            D           A            E
O quarto da empregada não tem janela e não tem nada, hey!!

1X INTRO (A D A E) OU RIFF

SOLO
E|-----------------------------|
B|-----------------------------|
G|--9/11--10/12--12^14^12^14---|
D|---------------------------14|
A|-----------------------------|
E|-----------------------------|

Depois do solo vem uma parada que é assim: 

                             E
E|------------------------------------------------------------------|
B|------------------------------------------------------------------|
G|---9--9--9--9--9--9--9--9--9--9--9--9--9--9--9--9--9--9--9--9--9--|
D|---9--9--9--9--9--9--9--9--9--9--9--9--9--9--9--9--9--9--9--9--9--|
A|---7--7--7--7--7--7--7--7--7--7--7--7--7--7--7--7--7--7--7--7--7--|
E|------------------------------------------------------------------|
OBS: só que não sei se minha contagem  está certa.

 A      D                 A          E      
2x2 mede o quarto da empregada
 A            D              A               E
Pra mim ele vale muito mas para os outros não vale nada
  A            D           A            E
O quarto da empregada não tem janela e não tem nada
  A            D           A            E
O quarto da empregada não tem janela e não tem nada, hey!!
(A D A E)
vaivairauvaivairauvavairaaaraaaau 2X

INTRO (A D A E) OU RIFF (2X)
Tap to rate this tab
 
# A B C D E F G H I J K L M N O P Q R S T U V W X Y Z