Song name
# A B C D E F G H I J K L M N O P Q R S T U V W X Y Z

Tera Melos - Last Smile For Jaron tab

----------------------------------------------------------------------------
                     Last Smile For Jaron - Tera Melos
----------------------------------------------------------------------------
Tabbed by: Tanner Doty
Email: dotytanner@yahoo.com

Tuning: STANDARD

This whole intro is played with double finger tapping, as in, the two highest notes will 
tapped with your right hand index, and middle finger; i play the two lower notes with 
left hand index and ring finger.

Mess with the treble, midrange, etc. to make the tapping sound better and more like the song.

p=pulloff
\=slide
----------------------------------------------------------------------------

E------------------------------------|-------------------------------|
B------------------------------------|12---12----12---12-----12------|
G-----12---12-----12---12-----12-----|-------------------------------|
D-9------9------9----9-----9------9\5|12-5-12--5-12-5-12--5--12--5/9-|
A-----12---12-----12---12-----12-----|-------------------------------|
E-7------7------7----7-----7------7\3|---3-----3----3-----3------3/7-|

E-----------------------------------|
B------------------------12------12-|
G-12---12-----12---12---------------|
D----9------9----9-----5-12p5/-9-12-|
A-12---12-----12---12---------------|
E----7------7----7-----3-----/-7----|

E--------------------------------------------------------|
B-------------------------------------12---12----12---12-|
G-----12---12-----12---12-----12-------------------------|
D-9------9------9----9-----9------9\5-12-5-12--5-12-5-12-|
A-----12---12-----12---12-----12-------------------------|
E-7------7------7----7-----7------7\3----3-----3----3----|

E--------------------------|--------------------------------|
B-12----12---12------------|-12---12----12---12-----12------|
G-------------------12-----|--------------------------------|
D-12--9-12-9-12--9------9\5|-12-5-12--5-12-5-12--5--12--5/9-|
A-------------------12-----|--------------------------------|
E-----7----7-----7------7\3|----3-----3----3-----3------3/7-|

E----------------------------------|--------------------------------------|
B------------------------12------12|---------------------------12------12-|
G-12---12----12---12---------------|----12---12----12---12----------------|
D----9-----9----9-----5--12p5/-9-12|-9-----9-----9----9-----5--12p5/-9-12-|
A-12---12----12---12---------------|----12---12----12---12----------------|
E----7-----7----7-----3------/-7---|-7-----7-----7----7-----3------/-7----|

----------------------------------------------------------------------------

The next part is really fast and hard to tab, but i'll post if i get anything new.
Tap to rate this tab
# A B C D E F G H I J K L M N O P Q R S T U V W X Y Z