Guitaretab - guitar tabs
Song name
# A B C D E F G H I J K L M N O P Q R S T U V W X Y Z

Tera Melos - Melody 3 tab

-------------------------------------------------------------------------------
			     Melody 3 - Tera Melos
-------------------------------------------------------------------------------
Tabbed by: Andrew Tamalunas
Email: lmaonade123@gmail.com

Tuning: EADGBe standard tuning

Really easy song, I'd suggest not using a pick to make things easier, there's a pattern 
you want me to put it in Guitar Pro or something. I'm PRETTY sure these are the right notes.

              To start with...
[ Tab from: http://www.guitaretab.com/t/tera-melos/182857.html ]
e|----------------------------------------------|
B|-------8--------8-------8------8------8-------|
G|-----9--------9-------9------9------9---------|
D|--10-------10------10------10----10-----------|
A|----------------------------------------------|
E|----------------------------------------------|

It varies between

         THIS      and      THIS
      T                   T
e|------------------|-------------------|
B|--5h12p8-------8--|---5h10p8------8---|
G|-------------9----|-------------9-----|
D|----------10------|----------10-------|
A|------------------|-------------------|
E|------------------|-------------------|


| /  slide up
| \  slide down
| h  hammer-on
| p  pull-off
| ~  vibrato
| +  harmonic
| x  Mute note
| T  Tapping
===============================================================================
Related for Melody 3 tab
×
Melody 3