Song name
# A B C D E F G H I J K L M N O P Q R S T U V W X Y Z

Tera Melos - Melody 4 tab

Melody 4 Tera melos
I take no credit for the first half of the tab.


Track 1


     S S S S S  S  S  S  S S  S  S S S S  S
E||-----------------------------------------|
B||-----------------------------------------|
G||------4---7S-9p-0h-4p-0---------4---7p-0-|
D||----5---5---------------1S-2h-5---5------|
A||--7--------------------------------------|
E||-----------------------------------------|


  S S S S S  S  S  S  S S S S  S  S  S  S
------------------------------------------|
------------------------------------------|
------2---2S-4p-0h-2p-0-----3S-4p-0h-3p-0-|
----5---5-----------------5---------------|
--3---------------------3-----------------|
------------------------------------------|


  S S S S S  S  S  S  S S  S  S S S S  S
-----------------------------------------|
-----------------------------------------|
------4---7S-9p-0h-4p-0---------4---7p-0-|
----5---5---------------1S-2h-5---5------|
--7--------------------------------------|
-----------------------------------------|


  S S S S S  S  S  S  S S S S  S  S  S  S
------------------------------------------|
------------------------------------------|
------2---2S-4p-0h-2p-0-----3S-4p-0h-3p-0-|
----5---5-----------------5---------------|
--3---------------------3-----------------|
------------------------------------------|


  S S S S S  S  S  S  S S  S  S S S S  S
-----------------------------------------|
-----------------------------------------|
------4---7S-9p-0h-4p-0---------4---7p-0-|
----5---5---------------1S-2h-5---5------|
--7--------------------------------------|
-----------------------------------------|


  S S S S S  S  S  S  S S S S  S  S  S  S
------------------------------------------|
------------------------------------------|
------2---2S-4p-0h-2p-0-----3S-4p-0h-3p-0-|
----5---5-----------------5---------------|
--3---------------------3-----------------|
------------------------------------------|


  Messed up time signatures sorry
  S                               S S S S  S  S  S  S S  S  S S  S  S S  S
---------------------------------------------------------------------------|
----------------------------------------------------------------------3S-5-|
------------------------------------4---7S-9p-0h-4p-0---------2h-4p-0------|
----------------------------------5---5---------------1S-2h-5--------------|
--7------------------------------------------------------------------------|
---------------------------------------------------------------------------|


  E  E  S E  E  S E  E.      S S S S S  S  S S S S S S  S  S  S  S
--------------------------|----------------------------------------|
--5--5--5-7--7--7-9--9\---|----------------------------------------|
--2--2--2-6--6--6-8--8\---|------7---2S-4p-0-----3---3S-4p-0h-3p-0-|
--2--2--2-4--4--4-6--6\---|----5---5-----------5---5---------------|
--------------------------|--3---------------2---------------------|
--------------------------|----------------------------------------|


  S S S  S  S  S  S S S S  S  S S  S S S E
--------------------------------------------|
--------------------------------------------|
------2S-4h-7p-4p-0-----0h-2p-0-2S-4--------|
----5-----------------5--------------7-5----|
--0-----------------3------------------3----|
---------------------------------------3----|


  S  S  S  S  S S S S S S  S  S  S  S S S    S  S  S  S S E  E  S E
------------------------------------------|--------------------------|
------------------------------------------|--------------------------|
--7p-0h-2S-4p-0-----3---3S-4p-0h-3p-0-----|--2S-4h-7p-4--------------|
------------------5---5-----------------5-|-------------5-5--5--5-5--|
----------------2---------------------0---|---------------3--3--3-3--|
------------------------------------------|---------------3--3--3-3--|


  S S S S S  S  S S S S S S  S  S  S  S
----------------------------------------|
----------------------------------------|
------7---2S-4p-0-----3---3S-4p-0h-3p-0-|
----5---5-----------5---5---------------|
--3---------------2---------------------|
----------------------------------------|


  S S S  S  S  S  S S S S  S  S  S  S  S  S
--------------------------------------------|
--------------------------------------------|
------2S-4h-7p-4p-0-----0h-2p-0h-2h-4p-2p-0-|
----5-----------------5---------------------|
--0-----------------------------------------|
--------------------3-----------------------|


  S S S S S  S  S S S S S S  S  S  S  S    S S S  S  S  S S E  E  S E
----------------------------------------|------------------------------|
----------------------------------------|------------------------------|
------7---2S-4p-0-----3---3S-4p-0h-3p-0-|------2S-4h-7p-4--------------|
----5---5-----------5---5---------------|----5--------------5--5--5-5--|
--3---------------2---------------------|--0--------------3-3--3--3-3--|
----------------------------------------|-------------------3--3--3-3--|


    E  S S S S S S E  S S S S S S    E  S S  S S  S  S E  S S  S S  S  S
|---3--3-3---3-3---3--3-3---3-3---|---------------------------------------||
|---3--3-3---3-3---3--3-3---3-3---|---------------------------------------||
|*--0--0-0---0-0---0--0-0---0-0---|-------2S-4-7p-4p-0------2S-4-7p-4p-0-*||
|*--2--2-2---2-2---2--2-2---2-2---|-----5-----------------5--------------*||
|---3--3-3---3-3---3--3-3---3-3---|--5-----------------5------------------||
|---------------------------------|---------------------------------------||


  E  S S S S S S E  S S S S S S    S S S S E  S S S S E
--3--3-3---3-3---3--3-3---3-3---|--3---3-3-x--3---3-3-x--|
--3--3-3---3-3---3--3-3---3-3---|--3---3-3-x--3---3-3-x--|
--0--0-0---0-0---0--0-0---0-0---|--0---0-0-x--0---0-0-x--|
--2--2-2---2-2---2--2-2---2-2---|--2---2-2-x--2---2-2-x--|
--3--3-3---3-3---3--3-3---3-3---|--3---3-3-x--3---3-3-x--|
--------------------------------|----------x----------x--|


  E  S S S S S S E  S S S S S S    H        H
--3--3-3---3-3---3--3-3---3-3---|--0--------0--------|
--3--3-3---3-3---3--3-3---3-3---|--0--------0--------|
--0--0-0---0-0---0--0-0---0-0---|--7--------5--------|
--2--2-2---2-2---2--2-2---2-2---|--7--------7--------|
--3--3-3---3-3---3--3-3---3-3---|--5--------5--------|
--------------------------------|--------------------|


  E  E  E  E  E  E  S S S S    E  E  E  E  E  E  S S S S
----------------------------|----------------------------|
----------------------------|----------------------------|
----------------------------|----------------------------|
----------------------------|----------------------------|
--5--5--5--5--5--5--5-5-5-5-|--2--2--2--2--2--2--2-2-2-2-|
--3--3--3--3--3--3--3-3-3-3-|--0--0--0--0--0--0--0-0-0-0-|


                                                                     NH
  S S S S S S  S  S S  S  S S  S S    S S S S S S  S  S S  S  S S    S S
-----------------------------------|-------------------------------------|
--8-8---8-8---12-12---12-12---12---|--8-8---8-8---12-12---12-12---<>12---|
--7-7---7-7---12-12---12-12---12---|--7-7---7-7---12-12---12-12---<>12---|
--7-7---7-7---10-10---10-10---10---|--7-7---7-7---10-10---10-10----------|
--7-7---7-7---10-10---10-10---10---|--7-7---7-7---10-10---10-10----------|
-----------------------------------|-------------------------------------|


  E  E  E  E  E  E  S S S S    E  E  E  E  E  E  S S S S
----------------------------|----------------------------|
----------------------------|----------------------------|
----------------------------|----------------------------|
----------------------------|----------------------------|
--5--5--5--5--5--5--5-5-5-5-|--2--2--2--2--2--2--2-2-2-2-|
--3--3--3--3--3--3--3-3-3-3-|--0--0--0--0--0--0--0-0-0-0-|


      PM PM   PM      PM PM   PM          PM PM   PM
  S S S  S  S E   S S S  S  S S  S S S    S  S  S S  S  E   E   S  Q.
---------------------------------------|----------------------------------|
--8--------------12----------------8---|---------------12--12--12-12------|
--7--------------12----------------7---|---------------12--12--12-12------|
--7--------------10----------------7---|---------------10--12--12-12------|
--7---0--0----0--10---0--0----0----7---|--0--0----0----10--10--10-10------|
---------------------------------------|----------------------------------|


  H.              Q.     S S S S S  S
--3------------|--L-------------------|-----||
--3------------|--L----------0-1-3S-5-|-----||
--0------------|--L------0-2----------|-----||
--2------------|--L-------------------|-----||
--3------------|--L-------------------|-----||
---------------|----------------------|-----||


If you have any questions feel free to email me, i have also uploaded a guitar pro of 
song too. stephen_hazel@hotmail.co.uk
Tap to rate this tab
# A B C D E F G H I J K L M N O P Q R S T U V W X Y Z