Song name
# A B C D E F G H I J K L M N O P Q R S T U V W X Y Z

Tera Melos - Melody 5 tab

This is kind of a hard song to play at first.  There's a short video of them
playing this on Youtube if you need reference.  It's called Tera Melos 
Destroying Davis.  Anyway, The first guitar is all tapped.  The "T's" mean 
the note is tapped with the right hand, while everything else is tapped with 
the left hand.  I'm 100% sure this fingering is right.  The second guitar is 
all picked.  The notes are all 100% right on this one, but I'm not so sure 
on the fingering, so it might be beneficial to experiment a little.  As one 
last note, this is probably the coolest intro I've ever heard

15/16
     T     T        T       T       T
     S S S S  S  S  S  S  S S S  S  S  S  S     4x
||----------------------------------------------||
||o------------------------------3-------------o||
||---9-----------6--------7---3----------10-----||
||-----7------4--------5---------------8--------||
||o------5---------10---------------6----------o||
||---------6----------------3-------------------||
|
|   
|    S S S S  S  S  S  S  S S S  S  S  S  S     4x
||----------------------------------------------||
||o--------------------------------------------o||
||--------------13-------14-----10--------------||
||--11-9-----11-------12------8-------11-12-----||
||o------9-8--------9-------5------10----------o||
||----------------------------------------------||

Last Time
     T     T        T       
     S S S S  S  S  S  S  S   Q 
||---------------------------------------||
||---------------------------------------||
||---9-----------6--------7---3----------||
||-----7------4--------5------5----------||
||-------5---------10---------5----------||
||---------6------------------3----------||
|
|   
|    S S S S  S  S  S  S  S   Q
||---------------------------------------||
||---------------------------------------||
||--------------13-------14--------------||
||--11-9-----11-------12-----------------||
||-------9-8--------9---------7----------||
||---------------------------------------||

Tap to rate this tab
# A B C D E F G H I J K L M N O P Q R S T U V W X Y Z