Song name
# A B C D E F G H I J K L M N O P Q R S T U V W X Y Z

Tera Melos - The Skin Surf tab

THE SKIN SURF

VERSE
That's too many for one head, free radicals got me wonderin'
 A
--------------------------------------------------------------------|
--------------------------------------------------------------------|
-11--------11-------11--------11--------11------11------------------|
------14------14---------14--------14------14--------14---11---14---|
----0----0-------0-----0----0----0----0-------0----0----0----0----0-|
--------------------------------------------------------------------|

There's no trace of science fiction around--far too (un)usual
 A
--------------------------------------------------------------------|
--------------------------------------------------------------------|
-11--------11-------11--------11--------11------11------------------|
------14------14---------14--------14------14--------14---11---14---|
----0----0-------0-----0----0----0----0-------0----0----0----0----0-|
--------------------------------------------------------------------|

 I went out of the wayyyyyyyyyyyyyy... to find  out some-thing...
  A
-----------------------------------------------------------------|
--5--------------------------------------------------------------|
--6-----------------------------------------11-------------------|
--7----------------------------------------------14---11---14----|
--0---------------------------------------0----0----0----0----0--|
-(5)-------------------------------------------------------------|

strange in outside of spaaaaaaaaaaaace.....  so   un---usu--al
 F#m                   A
-------------------------------------------------------------------|
-(2)-------------------5-------------------------------------------|
-(2)-------------------6----------------------11-------------------|
--4--------------------7---------------------------14---11---14----|
--4--------------------0--------------------0----0----0----0----0--|
--2-------------------(5)------------------------------------------|

trees are smarter when they transmit the sound of our dispatches
 A
--------------------------------------------------------------------|
--------------------------------------------------------------------|
-11--------11-------11--------11--------11------11------------------|
------14------14---------14--------14------14--------14---11---14---|
----0----0-------0-----0----0----0----0-------0----0----0----0----0-|
--------------------------------------------------------------------|

signals strung out when it's dancin' around plastic branches
 A                                                 E
--------------------------------------------------------------------|
--------------------------------------------------------------------|
-11--------11-------11--------11--------11------11------------------|
------14------14---------14--------14------14--------14---11---14---|
----0----0-------0-----0----0----0----0-------0---------------------|
---------------------------------------------------0----0----0----0-|

PRE-CHORUS (same as Verse Part I, without droning A note)
--------------------------------------------------------------------|
--------------------------------------------------------------------|
-11--------11-------11--------11--------11------11------------------|
------14------14---------14--------14------14--------14---11---14---|
--------------------------------------------------------------------|
--------------------------------------------------------------------|

CHORUS Part I
All      my       friends will try &  say
 F#       C#       E                   F#    E     A
-----------------------------------------------------------------------|
-----------------------------------------------------------------------|
-11-11-11------------------------------------9-9-9---------------------|
-11-11-11-11-11-11-2-2-2-2-2-2-2-2-2-2-4-4-4-9-9-9-7-7-7-7-7-7-7-7-7-7-|
--9--9--9-11-11-11-2-2-2-2-2-2-2-2-2-2-4-4-4-7-7-7-7-7-7-7-7-7-7-7-7-7-|
-----------9--9--9-0-0-0-0-0-0-0-0-0-0-2-2-2-------5-5-5-5-5-5-5-5-5-5-|

CHORUS Part II                                   [ optional tapping ]
All your time was was-ted for no-thing         [RH=      T     T  ]
  D                 A  F#m     E  F#m            [LH=  T T   T T    ]
-10------------12--------------0---2---------------------------------|
-10--10-12/14------14--10------0---2-------2---------------7-----10--|
-11--11------------------------1---2----5~---5~-2~-------5-----9-----|
--0---0------------14--11------2---4----------------0--4-----7-------|
-------------------------------2---4---------------(0)---------------|
-------------------------------0---2---------------------------------|

you have only   tas-ted the skin surf-ace
  D               A  F#m     E    F#m
--------------12-------------0-----2---------|
-----10-12/14----14--10------0-----2---------|
--7--11----------------------1-----2---14~~~-|
--0---0----------14--11------2-----4---13~~~-|
-(0)-------------------------2-----4---12~~~-|
-----------------------------0-----2---------|

it goes  on
--7---9---10-------------------10----10----10----10-|
----------------------------14----14----14----14----|
----------------------------------------------------|
---------------------------------------------|
----------------------------------------------------|
----------0-----------------------------------------|

INTERLUDE (similar to Verse Part I)
----------------------------------------------------------------|
----------------------------------------------------------------|
-11--------11-----------------------------------7--------7------|
------14------14----11---14-------------14-12-------11-----11---|
----0----0-------0-----0------11---14---------0---0----0------0-|
----------------------------0----0----0-------------------------|

------------------------------------------|
------------------------------------------|
-7--------7-------------------------------|
-----11-----11-----------------------12---|
---0----0------0-11---12---13---14------0-|
--------------------0----0----0----0------|

----------------------------------------------------------------|
----------------------------------------------------------------|
-11--------11-----------------------------------7--------7------|
------14------14----11---14-------------14-12-------11-----11---|
----0----0-------0-----0------11---14---------0---0----0------0-|
----------------------------0----0----0-------------------------|

--------------------------------------|
--------------------------------------|
-7--------7------13---14---15---16----|
-----11-----11----x----x----x----x----|
---0----0------0-11---12---13---14----|
--------------------0----0----0----0--|

VERSE
Heads are frozen, cryo-floating in five million buckets of
sauce and water, we're not fuckin' around. Bored of waiting so

I went out of the way to find out something
strange in outside of space; so unusual

What is our way in(???)?  What is intangible?
Still, waiting up all night is impossible

PRE-CHORUS (w/ more effects)

CHORUS
F#       C#       E                   F#    E     A
All      my       friends will try &  say
F#       C#       E                   F#    E     A
All      my       friends will try &  say

OUTRO
Part I x2
----------------------------------------------------|
----------------------------------------------------|
---------------------------------------------3~-----|
-5/8-(0)--------------------x-x----2~-x-x--5----x-x-|
-3/6--0--6---6-6-6-6-6-6-6--x-x--4----x-x-------x-x-|
---------4---4-4-4-4-4-4-4--------------------------|

Part II x2

----------------------------------------|
----------------------------------------|
----------------------------------------|
-11---11---11---11---11---11---11---11--|
---9----9----9----9----9----9----9----9-|
----------------------------------------|

Part I x4

Part III x4

--------------------------------------|
--------------------------------------|
--------------------------------------|
-11---9-------------11---11---9-------|
---9---7---9---11-----9----9---7---9--|
------------7----9------------------7-|

Part I x2 then end with  *harm*
-----------------------------|
-----------------------------|
-----------------------------|
-5/8-(0)-----------------*5*-|
-3/6--0--6---6-6-6-6-6-6-*5*-|
---------4---4-4-4-4-4-4-----|
Tap to rate this tab
 
# A B C D E F G H I J K L M N O P Q R S T U V W X Y Z