Song name
# A B C D E F G H I J K L M N O P Q R S T U V W X Y Z

Tera Melos - Frozen Zoo tab

FROZEN ZOO

INTRO
Part I                       harm (dd6 quick loop/stutter)
----------------------------------|
--4---6/7\6/7---2///--9------*7*--|
--4-------------4///--8--8--------|
-------------------------9--------|
----------------------------------|
----------------------------------|

Part II
  *pitch shifter bends from low Eb up to open E
--------------------------------------------------------------|
--------------------------------------------------------------|
--------------------------------------------------------------|
--------------------------------------------------------------|
--------------------------------------------------------------|
--^0--0-12-0-0-0--^0--0-12-0-0-0--^0--0-12-0-0-0--^0--0-12-0--|

VERSE (Part I & II combined + other noises)

PRE-CHORUS
--------//7-7-7-7-(7)-(7)----------|-------------------|
--4-----//7-7-7-7--7---7-----------|-------------------|
--4--4-------------9--(7h)8---8----|------6-6-----8-8--|
-----6----------------------9---9--|--9-9-----6-6------|
-----------------------------------|-------------------|
-----------------------------------|-------------------|

CHORUS
gonna get yourself shot
  E
-----------------------|
-----------------------|
-----------------------|
-----------------------|
--2~~~--2-2-2~~~--2-2--|
--0~~~--0-0-0~~~--0-0--|

BRIDGE
------------------------------------------------------------|
------------------------------------------------------------|
------------------------------------------------------------|
----------9--------------9--------------9-------------7-----|
-9---11-----9---9---11-----9---11---9-----9---9---11----7\6-|
---7----7-----7---7----7-----7----7---7-----7---7-----------|

--------------------------------------------------------------------------|
--------------------------------------------------------------------------|
--------------------------------------------------------------------------|
---------6-------------6-------------6-------------6----------------------|
-6---8-----6---6---8-----6---8---6-----6---6---8-----6---6---8--------4/6-|
---4---4-----4---4---4-----4---4---4-----4---4---4-----4---4---4--0-0-----|

VERSE

PRE-CHORUS

CHORUS (2nd time with this lead line)
gonna get yourself shot
  E
--11-------9------7----------------------------|
--14^16----12^14--10^12--7--------7----7----7--|
-------------------------9^11--10---10---10----|
-----------------------------------------------|
-----------------------------------------------|
-----------------------------------------------|

OUTRO x4
  B   C#  E   E
--------------0--|
--4---6---9---0--|
--4---6---9---1--|
--4---6---9---2--|
--2---4---7---2--|
--------------0--|

End with VERSE Part II by itself
Tap to rate this tab
 
# A B C D E F G H I J K L M N O P Q R S T U V W X Y Z