Song name
# A B C D E F G H I J K L M N O P Q R S T U V W X Y Z

Tera Melos - When Worms Learn To Fly tab

When Worms Learn To Fly
Tera Melos
jjjddd

this isnt originally my tab, most of this was done on a TabIt tab by a user called SensoryAmusia
so props to them, i just changed one or two things and put it down in an easier to read form

tuning: EADGBe

E|------------------------5h7(p0)-----------------------12p0-------17/19-------|
B|-7------------------------------------------------15-------12/14-------17----|
G|-7------------7-----7--------------------------14----------------------------|
D|-9------------9-----9------------8----8--------------------------------------|
A|------8-9-----9-----9------------9----9-----14-------------------------------|
E|--------------7-----7------------6----6--------------------------------------|

E|----------------------------------------------------------|
B|----20-\15-----19---12-\-10------19-\15-----19--12--10----|
G|--19---\14-----18---11-\-9-------18-\14-----18--11--9-----|
D|----------------------------------------------------------|
A|17-----\14-----17---10-\-9-------17-\14-----17--10--9-----|
E|----------------------------------------------------------|

E|--------------------------------------------------------------------------|
B|-----10------8-----10---8-------------------------------------------------|
G|-11------9------11----9----xxxxxx-8-----------------------2p0---------6\--|
D|-------------------------------------0-2p0-0-2p0-0-2p0-0-------4/--0------| [x2]
A|--------------------------------------------------------------------------|
E|--------------------------------------------------------------------------|

E|------------------------------------------------------------------------------------|
B|-----10------8-----10---8------10---8-----------------------------------------------|
G|-11------9------11----9----11-----9----xxxxxx-8-----------------------2p0-------6\--|
D|------------------------------------------------0-2p0-0-2p0-0-2p0-0-------4/-0------|
A|------------------------------------------------------------------------------------|
E|------------------------------------------------------------------------------------|

E|------------------------5h7(p0)-----------------------12p0-------17/19-------|
B|-7------------------------------------------------15-------12/14-------17----|
G|-7------------7-----7--------------------------14----------------------------|
D|-9------------9-----9------------8----8--------------------------------------|
A|------8-9-----9-----9------------9----9-----14-------------------------------|
E|--------------7-----7------------6----6--------------------------------------|

~SINGING SECTION~
E|------------------------------------------------------------------------|
B|(15)(15)------(15)(15)--------(11)~~~-----------------------------------|
G|(16)(16)------(16)(16)--------(12)~~~-----------------------------------|
D|(16)(16)------(16)(16)--------(12)~~~-----------------------------------| [x7]
A|-14--14--------14--14----------10~~~~-----------------------------------|
E|------------------------------------------------------------------------|


E|--------------------------------0------|
B|--------------------------------0------|
G|-4------------------------2p0---0------|
D|-5---0-2p0-0-2p0-0-2p0-0------4----4---| x2
A|-5---------------------------------2---|
E|-3-------------------------------------|

E|-----------------5h7(p0)-----------|
B|-7---------------------------------|
G|-7-------7---7---------------------|
D|-9-------9---9-----------8----8----|
A|----8-9--9---9-----------9----9----|
E|---------7---7-----------6----6----|

E|--------------------------------0------|
B|--------------------------------0------|
G|-4------------------------2p0---0------|
D|-5---0-2p0-0-2p0-0-2p0-0------4----4---| x2
A|-5---------------------------------2---|
E|-3-------------------------------------|

E|------------------------5h7(p0)-----------------------12p0-------17/19-------|
B|-7------------------------------------------------15-------12/14-------17----|
G|-7------------7-----7--------------------------14----------------------------|
D|-9------------9-----9------------8----8--------------------------------------|
A|------8-9-----9-----9------------9----9-----14-------------------------------|
E|--------------7-----7------------6----6--------------------------------------|

~TAPPING SECTION~
E|-----------------------------------------------------|-------------------------------|
B|-t19-p7h10p7-----------------------------------------|-------------------t19-p7h10p7-| 
PLAY THIS
G|-------------t19-p7h9p7--t19-p7h9p7-------------[x3]-|----------t19-p7h9-------------| 
WHOLE LINE
D|-------------------------------------t19-p7h9p7------|-t19-p7h9----------------------| 
THREE TIMES
A|-----------------------------------------------------|-------------------------------|
E|-----------------------------------------------------|-------------------------------|

E|-----------------------------------------------------|-------------------------------|
B|-t19-p7h10p7-----------------------------------------|-------------------t19-p7h10p7-|
G|-------------t19-p7h9p7--t19-p7h9p7-------------[x3]-|----------t19-p7h9-------------|
D|-------------------------------------t19-p7h9p7------|-t19-p7h9----------------------|
A|-----------------------------------------------------|------------------------[x2]---|
E|-----------------------------------------------------|-------------------------------|

E|-----------------------------------------------------|------------------------------------|
B|-t19-p7h10p7-----------------------------------------|-------------------t19-p7h10p7--t19-|
G|-------------t19-p7h9p7--t19-p7h9p7-------------[x3]-|----------t19-p7h9------------------|
D|-------------------------------------t19-p7h9p7------|-t19-p7h----------------------------|
A|-----------------------------------------------------|------------------------------------|
E|-----------------------------------------------------|------------------------------------|


E|--------------------------------------------------------------------------------|
B|--------------------------------------------------------------------------------|
G|-4---6----7-----------7------------4-4-4--4--4-4--4---6---3-----7---4---6---2---|
D|-5---7----9-----------7---7---5----5-5-5--5--5-5--5---7---4-----7---5---7---4---|
A|-5---7----9-----------5---7---5----5-5-5--5--5-5--5---7---4-----5---5---7---4---|
E|-3---5----7---------------5---3----3-3-3--3--3-3--3---5---2---------3---5---2---|

E|-----------------------------------|
B|-7-----8-----10------5-------------|
G|-7-----6------9------4-------------|
D|-9-----8-----10------6-------------|
A|-----------------------------------|
E|-----------------------------------|

E|------------------------------------------------------------|
B|------------------------------------------------------------|
G|(3)(4)----(3)(4)----(3)(4)----(3)(4)----(3)(4)----(3)(4)----|
D|------------------------------------------------------------|
A|------------------------------------------------------------|
E|(2)(3)----(2)(3)----(2)(3)----(2)(3)----(2)(3)----(2)(3)----|

E|-----------------------------------------|
B|-----10----8-----10---8------------------|
G|-11------9----11----9-----------11p9\7---|
D|-------------------------0-12-0----------|
A|-----------------------------------------|
E|-----------------------------------------|

E|--------------------------------|
B|-------------7----7-7-7-7-7-7-7-|
G|-4-----6-----8----8-8-8-8-8-8-8-|
D|-5-----7-----9----9-9-9-9-9-9-9-|
A|-5-----7-----9----9-9-9-9-9-9-9-|
E|-3-----5-----7----7-7-7-7-7-7-7-|

E|-----------------------------------------|
B|-----10----8-----10---8------------------|
G|-11------9----11----9-----------11p9\7---|
D|-------------------------0-12-0----------|
A|-----------------------------------------|
E|-----------------------------------------|

E|------------------------------------------------------------------------------14---|
B|10-------12----------15---14--------10------------12----------15---14-------15-----|
G|11-------12----------16---14--------11------------12----------16---14--12/14-------|
D|-----------------------------------------------------------------------------------|
A|-----------------------------------------------------------------------------------|
E|-----------------------------------------------------------------------------------|

E|---------------------------------------------------------14\12----------------------12-14-|
B|-10----10----------10--12-----------10----10----------15-------15--------------12-14------|
G|-11----11----------11--12---------7-------11----14/16-------------12---11-12-14-----------|
D|------------------------------7/9---------------------------------------------------------|
A|--------9---------------------------------------------------------------------------------|
E|------------------------------------------------------------------------------------------|

E|---------------------------------------0---------------------|
B|10------12/--------17--15----------10----------------3-------|
G|11------12/--------16--14--------7--------7----------4-------|
D|-------------------17--16------9-------------9-------5-------|
A|-------------------------------------------------------------|
E|-------------------------------------------------------------|

E|--------------------------------------------------------------------------------|
B|-----10------8-----10---8------10---8-------------------------------------------|
G|-11------9------11----9----11-----9----xxxxxx-8-----------------------2p0--4----|
D|------------------------------------------------0-2p0-0-2p0-0-2p0-0--------4----|
A|--------------------------------------------------------------------------------|
E|--------------------------------------------------------------------------------|
Tap to rate this tab
 
# A B C D E F G H I J K L M N O P Q R S T U V W X Y Z