Song name
# A B C D E F G H I J K L M N O P Q R S T U V W X Y Z

Tera Melos - Slimed tab

Well the main riffs are pretty simple, its got a bunch of effects though so to get the
right sound just play around with guitar rig or something. Listen to the song for the
rhythem and timing, i dont have the time nor do i want to tab out the timing etc. These 
are the 2 main riffs in the song ill add more when i figure it out.


Tera Melos - Slimed
Tabbed by: Jdordy

h= Artificial Harmonic/Squealie
b= Bend

e|------------------------------------------------------------------|
B|------------------------------------------------------------------|
G|------------------------------------------------------------------|
D|-----------------4-----2-------4-----------------4-----2-------4--|
A|--3-----------1-----3-------------3-----------1-----3-------------|
E|---------1------------------2------------1------------------2-----|



e|-------------------------------------------------------------------|
B|-------------------------------------------------------------------|
G|------4b---------------2b-------------4b---------------2b----------|
D|-----------------4-------------4------------------4-------------4--|
A|--3-----------1-----3-------------3------------1-----3-------------|
E|---------1------------------2-------------1------------------2-----|
        h^               h^             h^               h^
Tap to rate this tab
 
# A B C D E F G H I J K L M N O P Q R S T U V W X Y Z