Song name
# A B C D E F G H I J K L M N O P Q R S T U V W X Y Z

Tera Melos - Aped tab

-------------------------------------------------------------------------------
                             APED - Tera Melos
-------------------------------------------------------------------------------
Tabbed by: cool_man
E-mail: willjmhunter@gmail.com

Tuning: standard

The tabs that are already up don't really do justice to Nick Reinhart's guitar parts. I 
used this video: http://www.youtube.com/watch?v=qgzRAyoQ-Qc as a reference.

Intro loop

e|------------12------|
B|---9-10-12----------|
G|--------------------|
D|--------------------|
A|--------------------|
E|--------------------|

Guitar intro

e|--s9--7------------12--11----|
B|--s9--7-9--9-7---------------|
G|--------9--9-8---------------|
D|-----------------------------|
A|-----------------------------|
E|--s9--0-9--9-7--0---9---0----|

Let that D# on the high e ring over this verse part

e|-------------------------------------------|--12--11------|
B|-------------------------------------------|--------------|
G|----------------------------------9--------|--------------|
D|-------------------------------------------|--------------|
A|--9h11--9h11-11-9-7---9------------11-----|---------------|
E|--0-----0----------------7p0-7s9--------0--|--9----0------|

Do it again, but in the second section (where the line passes through the tab) throw this in there:

e|-----------12--11----|
B|--s12--10------------|
G|--s13--11------------|
D|---------------------|
A|---------------------|
E|------------9---0----|

The verse ends on this:

e|------------|
B|-s12-10-----|
G|-s13-11-----|
D|------------|
A|------------|
E|------------|

And the loop brings us into the first chorus

e|-0-----0------0------0----------------------|----0-------0---0---0-------------|
B|-4-----4------0------0--------0--------0----|-7--------4---4---4----0----------|
G|--------------4------4-----1--------1-------|----------------------------------|
D|--------------------------------------------|----------------------------------|
A|--------------------------------------------|----------0------------0----------|
E|----4-----4---2---2-----2--0-----0--------0-|-4--------------------------------|

Use the ending of that part as written twice and then move into this with this ending on 
the first and third time

e|------0----7---7---7------------|--------------------------------------------------|
B|---7-----9---9---9---------7----|---9------9-----9-----9-----9-----9----9----------|
G|---------------------9--8-------|-11b13-11b13-11b13-11b13-11b13-11b13-11b13--------|
D|--------------------------------|--------------------------------------------------|
A|---------0----------------------|--------------------------------------------------|
E|---4--------------------7-----0-|--------------------------------------------------|

and this ending on the second

e|--12p0------------------|
B|--------12p0------------|
G|--------------9h11------|
D|------------------------|
A|------------------------|
E|---------------------8s-|

Leading us back into the intro (same as before)

e|--s9--7------------12--11----|
B|--s9--7-9--9-7---------------|
G|--------9--9-8---------------|
D|-----------------------------|
A|-----------------------------|
E|--s9--0-9--9-7--0---9---0----|

and verse

e|-------------------------------------------|--12--11------|
B|-------------------------------------------|--------------|
G|----------------------------------9--------|--------------|
D|-------------------------------------------|--------------|
A|--9h11--9h11-11-9-7---9------------11-----|---------------|
E|--0-----0----------------7p0-7s9--------0--|--9----0------|

Do the first part again and lead into this:

e|----------|-12--9-----------|
B|--s12--10-|------------7-9--|
G|--s13--11-|---------9-------|
D|----------|-----------------|
A|----------|------0----------|
E|----------|--9------7---7-7-|

The second part above repeats with three different endings:

First

e|----------------------------|
B|-----0-------------9--------|
G|---2---------9-11-----------|
D|----------11----------------|
A|----------0-----------------|
E|---2------------------0-----|

Second and third

e|-----0----------------------|
B|--2--------------9----------|
G|-----------9-11-------------|
D|--------11------------------|
A|--0-----0-------------------|
E|---------------------0------|

fourth time


e|--12--11---9------------0-----------0-------|
B|--------------9---7---2---------------------|
G|--------------9---8------------9-11---------|
D|----------------------------11--------------|
A|-----------0----------0-----0---------------|
E|---9---0------9---7-------------------------|

Chorus happens again. On the part with varying endings you have the G# unison bend, and 
then again an octave higher, then a pedal jam then this part with varying endings:


e|-----12p0---------------------------------------------|
B|-----------12p0---------------------------------------|
G|---------------------------------------9h11-----------|
D|-----------------9h11------10----9h11-----------------|
A|--------------------------9----0-------------0h3------|
E|--0---------------------8-----------------------------|

First five endings:

e|----------|
B|--5---7---|
G|----------|
D|----------|
A|--3---5---|
E|----------|

6th ending


e|------------|
B|--5-7-4-----|
G|------------|
D|------------|
A|--3-5-2-----|
E|------------|

7th ending

e|------------|
B|-5-7-8-9----|
G|------------|
D|------------|
A|-3-5-6-7----|
E|------------|

8th ending

e|---------0----|
B|-5-7-8-4------|
G|--------------|
D|--------------|
A|-3-5-6-2------|
E|--------------|

outro repeated with different endings

e|---------0-0-0------------|
B|-------2------------------|
G|---2-3--------------------|
D|--------------------------|
A|--------------------------|
E|-0-1-2----------2h3h4-----|

ending one

e|------------2h4--------0----|
B|-----s4-----2h4-----4-------|
G|--4--s4---------------------|
D|----------------------------|
A|-----------------0--2-------|
E|---------0------------------|

ending two

e|------------------0--|
B|-0-------------4-----|
G|---1-----1-----------|
D|---------------------|
A|------2-----0--2-----|
E|----0----0-----------|

ending three

e|------------2h4----------------------|
B|-----s4-----2h4-----4p0--0-0---------|
G|--4--s4------------------------4-----|
D|-------------------------------------|
A|-----------------0--2----0-----------|
E|---------0---------------------4-----|

Giant pause and then that whole outro repeats again with this riff bringing it in:

e|--------0--|
B|----2-4----|
G|-s4--------|
D|-----------|
A|-----------|
E|-----------|

Another pause and the song ends with this:

e|-------------0-0-----0------------0-0-0-0-0-4p2p0----------------------4--6----0--|
B|-----2-2-4-4------4-------------2-----------------4p2p0----------------4--6--4----|
G|-4-4-----------------------2--3--------------------------3------------------------|
D|-----------------------------------------------------------2----------------------|
A|------------------2---------------------------------------------------------------|
E|------------------------0--1--2-------------------------------0h2h4-0--4--6--2----|

e|---------0-0-0------------|
B|-------2------------------|
G|---2-3--------------------|
D|--------------------------|
A|--------------------------|
E|-0-1-2----------2h3h4-----|

e|------------------0--|
B|-0-------------4-----|
G|---1-----1-----------|
D|---------------------|
A|------2-----0--2-----|
E|----0----0-----------|

e|---------0-0-0------------|
B|-------2------------------|
G|---2-3--------------------|
D|--------------------------|
A|--------------------------|
E|-0-1-2----------2h3h4-----|

e|------------2h4-----------------------2-----7-9-11-7-----|
B|-----s4-----2h4-----4p0--0-0-----2-4-----9---------------|
G|--4--s4------------------------4-------------------0-----|
D|---------------------------------------------------------|
A|-----------------0--2----0-------------------------------|
E|---------0---------------------4---------0---------------|
************************************

| /   slide up
| \   slide down
| h   hammer-on
| p   pull-off
| ~   vibrato
| +   harmonic
| x   Mute note
| b   Bend
| pb  Pre-bend
| br  Bend release
| pbr Pre-bend release
| brb Bend release bend
Tap to rate this tab
 
# A B C D E F G H I J K L M N O P Q R S T U V W X Y Z