Song name
# A B C D E F G H I J K L M N O P Q R S T U V W X Y Z

Tera Melos - A Spoonful Of Slurry tab

Spoonful of Slurry, This is most of the song. You sort of have to figure out the rhythms 
your own but all the chords and notes are there  Some parts require tapping so 
you can figure out that too.

E :--------------12-11-11-11-11--|-----------12-11-11-11-11-11-11--|
B :-------12-0------12-12-12-12--|----12-0------12-12-12-12-12-12--|
G :---6-9------9----11-11-11-11--|6-9------9----11-11-13-11-13-11--|
D :------------------------------|---------------------------------|
A :------------------------------|---------------------------------|
E :------------------------------|---------------------------------|

E :-----------12-11-11-------|-----------12-11-11-11-----|
B :----12-0------12-12-------|----12-0------12-12-12-----|
G :6-9------9----11-11-------|6-9------9----11-11-13-----|
D :--------------------------|---------------------------|
A :--------------------------|---------------------------|
E :--------------------------|---------------------------|

E :-----------------------|------------------|
B :---12----12------------|------------------|
G :-9-11--9-11--9--9--9---|8--9-8--9---------|
D :11-11-11-11-11-11-11---|9-11-9-11---------|
A :-9-----9-----9--9--9---|7--9-7--9---------|
E :-----------------------|------------------|

E :------0--------------------------------|-----------------------------|
B :-----------------------------------14--|14--14-----------------------|
G :15---------13----13----16----16----15--|15--15--15----13----16-------|
D :---16---16----16----16----16----16-16--|16--16-----16----16----16----|
A :---------------------------------------|-----------------------------|
E :---------------------------------------|-----------------------------|

E :---------------------|-------------------|-----------12------|
B :14xxxx14xxx14--12--12|--12---12--12------|----12-0-----------|
G :15xxxx15xxx15--13--13|--13---11--11------|6-9------9---------|
D :16xxxx16xxx16--14--14|--14---11--11------|-------------------|
A :---------------------|-------------------|-------------------|
E :---------------------|-------------------|-------------------|

E :-----------------|-----------------|----------------------|
B :-----------------|-----------------|--------------12------|
G :-----------------|-----------------|----------------------|
D :-----------------|----13-----------|-----------13---------|
A :----------6-9-11-|0-9--------------|6-9-11-0-9-------14---|
E :2-4-0-7-9--------|--------2-4-0-7-9|----------------------|

E :-----------------|------------------|
B :-----------------|--------12--------|
G :-----------------|------------------|
D :-----------------|-----13-----------|
A :-----------6-9-11|-0-9--------------|
E :-2-4-0-7-9-------|-----------0-2-4-0|

E :------------------|----------------|----------------|-----------------|
B :------------------|----------------|----------------|-----------------|
G :---------------16-|----------------|----------------|-----------------|
D :---------------16-|----------------|----------------|-----------------|
A :----6-9-11-0-9----|----------------|----------------|------6-9-11-0-9-|
E :7-9---------------|----------------|----------------|0-2-4------------|

E :------------------|-----------11----------12---|-----------------|
B :------------------|-----12----------11---------|-----------------|
G :------------------|--------11----------13------|-----------------|
D :13----------------|--13----------11------------|-----------------|
A :---------6-9-11-0-|9---------------------------|------6-9-11-0-9-|
E :---0-2-4----------|----------------------------|0-2-4------------|

E :----------------------|---------19-----------|------------------|
B :---12-----------------|------19--------------|------------------|
G :-----------------8-11-|13-11-----------------|---------16-------|
D :13--------6-9-11------|----------------------|---------16-------|
A :------14--------------|--------------------6-|9-11-0-9----------|
E :----------------------|------------0-2-4-0---|------------------|

E :----------------7-------|----------------|----------------11------|
B :----7-----7-----------7-|----------------|----------------12------|
G :--4-----4-----4-----4---|--4---6-8-4---6-|8---------------11--9-8-|
D :------------------------|--6-6-8-9-6-6-8-|9------------------11-9-|
A :------------------------|----7-------7---|---9--9-----------------|
E :2-----2-----2-----2-----|----------------|--11-11-0-0-0-0---------|

E :----------------|-----------------|---------------------11-11-11--|
B :----------------|-----------------|-----------12------------------|
G :6-4-8-----------|-----------------|--------11----11-----11-11-11--|
D :7-6-----9---9-8-|------9---9-11-9-|8-----9----------9-------------|
A :------6---6-----|9-6-7---7--------|--9-9--------------9-----------|
E :----------------|-----------------|-------------------------------|

--------------------------------------------------------------------------------

I was too lazy to figure out the breakdown chord part but i figured out some of the cool 
at the end
E :------14------11-----------|----12-0---------|
B :---12-------9--------12-0--|7-9--------------|
G :13-------11------6-9-------|-----------------|
D :---------------------------|-----------------|
A :---------------------------|-----------------|
E :---------------------------|-----------------|

http://www.teramelosmusic.com/
Tap to rate this tab
# A B C D E F G H I J K L M N O P Q R S T U V W X Y Z