Song name
# A B C D E F G H I J K L M N O P Q R S T U V W X Y Z

Terasbetoni - Teraksen Varjo tab

Band:Teräsbetoni
Song:Teräksen Varjo
Tabber:Da Jamm

GTR.1=Disorted
GTR.2=Disorted


GTR.1
Tremolo picked

--------------------------------------|
--------------------------------------|
--------------------------------------|
--------------------------------------|
8-----10----11----10----8-------------|
--------------------------------------|

GTR.2
Plays every time GTR.1 changes notes

--------------------------------------|
--------------------------------------|
--------------------------------------|
8-----10----11----10----8-------------|
8-----10----11----10----8-------------|
8-----10----11----10----8-------------|


Chours

GTR.1

im not sure but i think it goes like this

---------------------------------------------------------------------|
---------------------------------------------------------------------|
---------------------------------------------------------------------|
---------------------------------------------------------------------| X2
12-------10-------8-------12-----10------12----15--------------------|
12-------10-------8-------12-----10------12----15----888881010101010-|
                                                     pm.............

Im really sorry for that i couldnt get the solo, i tried but couldnt tab it so sorry again!

First part
Chours
First part
Chours
Solo???
Chours
First part
Tap to rate this tab
 
# A B C D E F G H I J K L M N O P Q R S T U V W X Y Z