Guitaretab - guitar tabs
Song name
# A B C D E F G H I J K L M N O P Q R S T U V W X Y Z

Tercer Mundo - Te Amare tab

Álbum: Te amaré
Año: 2004
Duración: 4:09
Compás: 4/4
Tuning: Standard
Transcripción de: Pablo Cerón
_________________________________________________________

Guitarra y Voz: Felipe Jácome
Piano y Coros: Daniel Jácome
Batería y Coros: Juan Manuel Jácome
________________________________________________________

:::Acordes:::
/Los acordes están ubicados en la tablatura para el rasgado y 
también como referencia en los arpegios de la 1ra parte de la canción/

.- Acordes Especiales -.
        eBGDAE
G+:     x00023
Em7/B:  x3002x
D7/D#:  2121xx
Cadd9+: x4023x
Bm5:    33002x
Cadd9:  33023x
A7sus4: 33020x
Dsus4:  3320xx

******************************************************
Intro [0:0] - Guitarra acústica (Arpegio)
            - Violonchelo

   G+          Em7/B        C
e|----------------------0-|-0------------------------|
B|-0-----0-----3-----3----|-1-----1-----1-3----1—0h1-|
G|-0--0-----0--0--0-------|----0-----0------0--------|
D|------------------------|--------------------------|
A|-------------2----------|-3------------------------|
E|-3----------------------|--------------------------|

   G+          Em7/B        C           C
e|----------------------0-|-0-----------3----------|
B|-0-----0-----3-----3----|-1-----1-----1-------—--|
G|-0--0-----0--0--0-------|----0-----0-------------|
D|------------------------|------------------------|
A|-------------2----------|-3-----------3----------|
E|-3----------------------|------------------------|

******************************************************
Estrofa (1era y 2da) [0:12], [0:39] - Guitarra acústica (Arpegio)
                                    - Violonchelo (2da estrofa)

   G+          Em7/B        C
e|----------------------0-|-0-----------------------|
B|-0-----0-----3-----3----|-1-----1-----1-3----1—0h1|
G|-0--0-----0--0--0-------|----0-----0------0-------|
D|------------------------|-------------------------|
A|-------------2----------|-3-----------------------|
E|-3----------------------|-------------------------|

   G+          Em7/B        C
e|----------------------0-|-0------------------------|
B|-0-----0-----3-----3----|-1-----1-----1h3-1--0--1p0|
G|-0--0-----0--0--0-------|----0-----0---------------|
D|------------------------|--------------------------|
A|-------------2----------|-3------------------------|
E|-3----------------------|--------------------------|

   D           D7/D#        C           Cadd9+
e|-2-----2-----5-----5----|-0-----0----------------|
B|----3-----3-----4-----4-|----1-----1--4----1-----|
G|------------------------|------------------------|
D|-0-----0-----1-----1----|------------------------|
A|------------------------|-3-----3-----3----------|
E|------------------------|------------------------|

   Bm5         Cadd9        Bm5         Cadd9
e|-------3-----------0----|-------3-----0----------|
B|-3--------3--3--------3-|-3--------3-----3-------|
G|----0-----------0-------|----0--------------0----|
D|------------------------|----------------------2-|
A|-2-----------3----------|-2-----------3----------|
E|------------------------|------------------------|

/En esta parte la 1era y 2da estrofa cambian/

   D           D                   D           D
e|------------------------|     e|------------------------|
B|-3-----3-----3----------|     B|-3-----3-----3-----3----|
G|----2-----2-------2-----|     G|----2-----2-----2-----2-|
D|-0-----------0----------|     D|-0-----------0----------|
A|------------------------|     A|------------------------|
E|------------------------|     E|------------------------|
    1era estrofa [0:36]              2da estrofa [1:04]

[Estrofa1]
Para que voy a llamarte
Si no vas a contestar.
Para que voy a buscarte
Si otra vez no vas a estar
Habrás salido, talvez a intentar
Encontrar un nuevo amor,
Tratar de conseguir alguien mejor que yo.

[Estrofa2]
Para que tratar de hablarte
Si no me vas a escuchar
Para que voy a escribirte
Mis palabras para ti son como hojas
Que el viento enterrará
Junto a mi corazón
Partido de dolor por no tener tu amor

******************************************************
Pre-coro [1:06] - Guitarra acústica (Arpegio)
                - Violonchelo y Violín

   Am          Em7/B        D            D
e|------------------------|-0h2----------0h2---------|
B|-1-----1-----3-----3----|--------3------------3----|
G|----2-----2-----0-----0-|-----2-----2------2-----2-|
D|------------------------|-0------------0-----------|
A|-0-----------2----------|--------------------------|
E|------------------------|--------------------------|

   Am          Em7/B        D            D
e|------------------------|-0h2----------2----------|
B|-1-----1-----3-----3----|--------3----------------|
G|----2-----2-----0-----0-|-----2-----2--2----------|
D|------------------------|-0------------0----------|
A|-0-----------2----------|-------------------------|
E|------------------------|-------------------------|

Pero ahora me tienes que escuchar
Ahora que me atrevo a confesar

******************************************************
Coro [1:18] - Guitarra acústica (Arpegio)
            - Violín

   G           G            D
e|-3-----------3--------3-|-2-----------2h3~--2----|
B|-------3-----------3----|-------3--------------3-|
G|----0-----0-----0-------|----2-----2-------------|
D|------------------------|-0----------------------|
A|------------------------|------------------------|
E|-3-----------3----------|------------------------|

   Cadd9       Cadd9        A7sus4      D
e|-3-----------3----------|-3-----------2----------|
B|-------3-----------3----|-------3-----------3----|
G|----0-----0-----0-----0-|----0-----0-----2-----2-|
D|------------------------|-------------0----------|
A|-3-----------3----------|-0----------------------|
E|------------------------|------------------------|

   G           G            Dm          Dm
e|-3-----------3--------3-|-1-----------1----------|
B|-------3-----------3----|-------3-----------3----|
G|----0-----0-----0-------|----2-----2-----2-----2-|
D|------------------------|-0-----------0----------|
A|------------------------|------------------------|
E|-3-----------3----------|------------------------|
[ Tab from: http://www.guitaretab.com/t/tercer-mundo/78852.html ]
   C           C            Cm          Cm
e|-0-----------0----------|-3-----------3----------|
B|-------1-----------1----|-------4-----------4----|
G|----0-----0-----0-----0-|----5-----5-----5-----5-|
D|------------------------|------------------------|
A|-3-----------3----------|-3-----------3----------|
E|------------------------|------------------------|

   Am          Am           Dsus4       D
e|-0-----------0----------|-3-----------2----------|
B|-------1-----------1----|-------3----------------|
G|----2-----2-----2-----2-|----2-----2-------------|
D|------------------------|-0-----------0----------|
A|-0-----------0----------|------------------------|
E|------------------------|------------------------|

[Coro]
Siempre te amé, y siempre te amaré
No importa las paredes que se han levantado
Tengo que quedarme aquí a tu lado
Te quiero y te querré
Si todo el tiempo que estuvimos tú y yo juntos
No puede terminar en un segundo
Mi amor por ti es más fuerte que el adiós
Te amo y te amaré

******************************************************
Intermedio [1:49] – Piano
                    Guitarra acústica (Rasgado)

/Se usa las mismas notas que la Intro pero en piano/
/Con los acordes de guitarra se hace el rasgado/

******************************************************
3ra Estrofa [2:01] – Piano
                   - Guitarra (Arpegio y Rasgado)

/Similar a la 1era y 2da pero con unos pequeños cambios/
/Se combinan piano y guitarra para conseguir el mismo efecto/

Para que inventar poesía
Que no te interesa oír
Porque trato de seguirte
Si no puedo dar un paso en el camino
Tratando de llegar, a tú corazón
Para pedir perdón por no cuidarte

******************************************************
Pre-coro [2:28] – Piano
                - Guitarra acústica (Rasgado)
                - Violín

/Igual que el Pre-coro anterior con piano/

******************************************************
Coro [2:39] - Guitarra acústica (Rasgado)
            - Violín
            - Piano (Acordes)

/En el 2do coro se tocan los acordes de la guitarra y el piano/

******************************************************
Solo [3:11] - Piano
            - Guitarra (Rasgado)
   Em                 Bm
e|-0----------------|-2---------------14-12---------|
B|-0-----0-3---0----|-3-------7-10-12-------15-14---|
G|-0---0-----0---3-0|-4---7-9---------------------14|
D|-2----------------|-0-----------------------------|
A|-2----------------|-2-----------------------------|
E|-0----------------|-------------------------------|

   Fm                      E    E    E    E
e|-2---------2-2-5-5--2--|-0----0----0----0----|
B|-2-----2-2------------2|-0----0----0----0----|
G|-2---2-----------------|-1----1----1----1----|
D|-4---------------------|-2----2----2----2----|
A|-0---------------------|-2----2----2----2----|
E|-2---------------------|-0----0----0----0----|

******************************************************
Coro [3:22] - Piano
            - Violín
            - Guitarra acústica (Rasgado)
            - Batería (Fill1)

/Se sube un tono a la canción/
/Al igual que el 2do coro se tocan los acordes de guitarra y piano/

             A                   E
Siempre te amé, y siempre te amaré
                  Bm
No importa las paredes que se han levantado
 Bm7          E                 A
Tengo que quedarme aquí a tu lado
                    Em
Te quiero y te querré
                     D 
Si todo el tiempo que estuvimos tú y yo juntos
    Dm
No puede terminar en un segundo
    Bm                                 E
Mi amor por ti es más fuerte que el adiós
                [Outro]
Te amo y te amaré

******************************************************
Outro [3:55] – Guitarra acústica
             - Piano

/La guitarra y el piano tocan las mismas notas/
             A             A             Em
e|-------------------|------------------------|
B|-----------2-----2-|-----2-----0-2-0---0----|
G|--------------2----|--2-----2--------2----0-|
D|-------------------|------------------------|
A|-----------0-------|-----0-------------2----|
E|-------------------|------------------------|

         D              A
e|-------------------|-----0-|
B|-0-----3-----3-----|----2--|
G|----0-----2-----2--|---2---|
D|-------0-----------|--2----|
A|-------------------|-------|
E|-------------------|-------|

_________________________________________________________
******************************************************
Fill1 [3:21]

:::Leyenda:::
h - Hi-Hat     |--x--|> Hi-Hat (cerrado)
S – Snare Drum |--o--|> Golpe con un drum stick
B – Bass Drum  |--o--| 
T - Toms       |--o--|> Tom pequeño
C - Cymbals    |--x--|> Crash de 14”
               |--X--|> Crash de 16”
               |--o--|> Splash

h|----------------------|-x--x--x--x--x--x--x--x-|
S|----o--------o--o-----|-------o-----------o----|
B|----o-o--o------------|-o-----------o--o-------|
T|------------------o-o-|------------------------|
C|----------------------|-X----------------------|
 
h|-x--x--x--x--x---x---x--x-|-x--x--x--x--x---x--x--x-|
S|-------o-------o-----o----|-------o-------o----o----|
B|-o-----------o-----o------|-o-----------o---o-------|
T|--------------------------|-------------------------|
C|--------------------------|-------------------------|
 
h|-x--x--x--x--x--x---------|-x--x--x--x--x---x--x--x-|
S|-------o-----------o-o----|-------o-------o----o----|
B|-o-----------o--o---------|-o-----------o---o-------|
T|-----------------------o-o|-------------------------|
C|--------------------------|-X-----------------------|
 
h|-x--x--x--x--x--x--x--x-|-x--x--x--x--x---x--x--x-|
S|-------o-----------o----|-------o-------o----o----|
B|-o-----------o--o-------|-o-----------o---o-------|
T|------------------------|-------------------------|
C|------------------------|-------------------------|
 
h|-x--x--x--x--x--x--x--x-|-x--x--x--x--x--x---------|
S|-------o-----------o----|-------o-----------o-o----|
B|-o-----------o--o-------|-o-----------o--o---------|
T|------------------------|-----------------------o-o|
C|-o----------------------|-X------------------------|
 
h|-x--x--x--x---------|
S|-------o-----o------|
B|-o--------o---------|
T|--------------------|
C|-x-----------X------|
×
Te Amare