Song name
# A B C D E F G H I J K L M N O P Q R S T U V W X Y Z

Terence Jay - One Blood tab

Terence Jay - One Blood (Solo) by SaenOneNBC

My first tab so don't hate. Should be pretty accurate tho. Beginns with the
distorted guitar coming in.

b=bend (full, if not stated otherwise)
r=release --> br, brb= bend,release,(bend)
h=hammer on/off
/=slide
~=vibrato

Enjoy!

E||------------------------------------------------------------------------|
B||----------------------------------------------------------13--15brbr----|
G||--------------------------------------14----------12--14----------------|
D||------------------------------12--14------------------------------------|
A||--12--------12----------12/15-------------------------------------------|
E||------------------------------------------------------------------------|


                                             [1 1/2]
---------------------------------------------------------------------------|
--h13-------13--15----------13--15------------17br------15--17h15----------|
------14------------14b-------------12~---------------------------17-------|
---------------------------------------------------------------------------|
---------------------------------------------------------------------------|
---------------------------------------------------------------------------|

---------------------------------------------|
------13--15br-h13-15-----------------12-----|
--14---------------------14br-12-14------12--|
---------------------------------------------|
---------------------------------------------|
---------------------------------------------|


                                                     [1/2]
-------------------------------------------------------------------------|
----------------15----15----17-----------------------12br----------------|
------12-14/16-----16---------------14br-12-----------------14--12-14----|
--14---------------------------------------14--14------------------------|
-------------------------------------------------------------------------|
-------------------------------------------------------------------------|

---------------------------------------------------|
---------------------------------------------------|
-----------------------------------------12--------|
--12br---10-12-10------------10----12/14-----14/12-|
-----------------12--12----------------------------|
---------------------------------------------------|

------------------------------------------------||
------------------------------------------------||
------------------------------------------------||
----------------5-------------------------------||
--12--12----5/7------7/5------------------------||
-------------------------5------3h-5--3----5----||
Tap to rate this tab
 
# A B C D E F G H I J K L M N O P Q R S T U V W X Y Z