Song name
# A B C D E F G H I J K L M N O P Q R S T U V W X Y Z

Terence Jay - One Blood tab

-------------------------------------------------------------------------------
			     TERENCE JAY - ONE BLOOD
-------------------------------------------------------------------------------
Tabbed by: AdamDK
Email: adamdickinson1993@gmail.com

*************
NOTES
*************

(1) 'brp' is bend-release then pull-off to the designated fret on the tab
(2) All bends are whole tone bends EXCEPT the '12br-10-8-10~' part, which is 
    a half tone bend
(3) This is the first solo I have ever transcribed by ear, and I'd say it's 
    almost all correct however at the end of the solo I couldn't figure out 
    the notes on the A and E string afterwards so have left them out, although 
    they sound quite like a typical pentatonic low E/A string lick.
(4) To get the timing right listen to the solo. it's in 4/4 timing.
**************

Tuning: EADGBE

e|-----8-10brb-r8------------------------------------------------------------|
B|---8------------10~--12-15-----12h13---------18b~---15-17-15-13~--13-15----|
G|\9------------------------14b~--------12~----------------------------------|
D|---------------------------------------------------------------------------|
A|---------------------------------------------------------------------------|
E|---------------------------------------------------------------------------|

e|------------------------------------------------12-----12------------------|
B|15brp13-15~---------------------------------12-----15b---------------------|
G|-------------14brp12---14/16-12~-----12-14b---------------14brp12----------|
D|----------------------------------14------------------------------14~------|
A|---------------------------------------------------------------------------|
E|---------------------------------------------------------------------------|

e|---------------------------------------------------------------------------|
B|12br-10-8-10~----------------------8---------------------------------------|
G|---------------7brp5---------5-7/9---9\7-5---------------------------------|
D|---------------------7-5-7~-----------------7-5-7~-------------------------|
A|---------------------------------------------------------------------------|
E|---------------------------------------------------------------------------|


************************************

| /   slide up
| \   slide down
| h   hammer-on
| p   pull-off
| ~   vibrato
| +   harmonic
| x   Mute note
| b   Bend
| pb  Pre-bend
| br  Bend release
| pbr Pre-bend release
| brb Bend release bend

************************************
Tap to rate this tab
 
# A B C D E F G H I J K L M N O P Q R S T U V W X Y Z