Song name
# A B C D E F G H I J K L M N O P Q R S T U V W X Y Z

Terence Jay - One Blood tab

-------------------------------------------------------------------------------
			           ONE BLOOD (INTRO) - Terence Jay
-------------------------------------------------------------------------------
Tabbed by: MadsH
Email: Unknown

Tuning: Standard

| /   slide up
| \   slide down
| h   hammer-on
| p   pull-off
| ~   vibrato
| b   Bend
| pb  Pre-bend
| br  Bend release

e|---------------------------------------------------------------------------|
B|---------------------------------------------------------------------------|
G|---------------------------------------------------------------------------|
D|---------------------------10--12--12/14--14\12--10--10/12-----------------|
A|---------------10--10/12~-----------------------------------12-------------|
E|--8--8--10/12--8-----------------------------------------------------------|

e|---------------------------------------------------------------------------|
B|---------13-------13--15--15b--15br--13--15--------------------------------|
G|-------------14~-----------------------------14--14--12--14----------------|
D|--12/14--------------------------------------------------------------------|
A|---------------------------------------------------------------------------|
E|---------------------------------------------------------------------------|

e|---------------------------------------------------------------------------|
B|---------------------------------------------------------------------------|
G|--12h14p12-----------------------------------------------------------------|
D|------------12/14~--14\12--10pb--------------------------------------------|
A|--------------------------------12h10------10/12~--------------------------|
E|---------------------------------------12----------------------------------|
Tap to rate this tab
 
# A B C D E F G H I J K L M N O P Q R S T U V W X Y Z