Song name
# A B C D E F G H I J K L M N O P Q R S T U V W X Y Z

Terence Trent Darby - Dance Little Sister tab

------------------------------------------------------------------------------
                             Dance little sister  Terence Trent Derby
------------------------------------------------------------------------------
Tabbed by: Pete
E-mail: pproeleveld@hotmail.com

Tuning: standard

Riff 1: Keyboard intro for guitar. Repeat throughout with different feel. Listen to song 
for timing.

e|--10-10--8-8--7-7--7-8-8--10-10--8-8--7-x-x----------------------------------|
B|---8--8--8-8--8-8--8-8-8---8--8--8-8--8-x-x----------------------------------|
G|---7--7--7-7--7-7--7-7-7---7--8--7-7--7-x-x----------------------------------|
D|-----------------------------------------------------------------------------|
A|-----------------------------------------------------------------------------|
E|-----------------------------------------------------------------------------|

Riff 2: basic riff, use variations

e|--8-8-8-8-8-8-8-8-7-x-x-x-x-8-8-8-8-7--------------------------------------|
B|--8-8-8-8-8-8-8-8-8-x-x-x-x-8-8-8-8-8--------------------------------------|
G|--7-7-7-7-7-7-7-7-7-x-x-x-x-7-7-7-7-7--------------------------------------|
D|---------------------------------------------------------------------------|
A|---------------------------------------------------------------------------|
E|---------------------------------------------------------------------------|

Guitar changes between riffs 1 and 2
Tap to rate this tab
 
# A B C D E F G H I J K L M N O P Q R S T U V W X Y Z