Song name
# A B C D E F G H I J K L M N O P Q R S T U V W X Y Z

Teresa Teng - Yue Liang Dai Biao Wo De Xin tab

Instrumental

Intro

e|-----------------------------------------0----------------------------|
B|--3-----------0------------0--------------------1-------1-------------|
G|--------0---------2----0-------------0--------------0------2--0-------|
D|-----0-----0----------------------2----------2-------------------4----|
A|-------------------------------2---------3-----------------------5----|
E|--3------------------------0------------------------------------------|

Bit 1

e|--------------------------------------------------0-----2---3---0-----|
B|---------------0---3-------------0-----3----3-----3---------1-------3-|
G|------0-----0------0----0--------------2------------------------------|
D|--0------0-------------------4----------------------------------------|
A|-----------------------------2---------2----------3---------3---------|
E|------3------------3------------------------------------------------3-|

e|----------------------------------------------------------------------|
B|--0-------------------0-----------------------0---0-------------------|
G|------2----0---0--0-------2---0---0---0---2-----------2---------------|
D|-----------2------2-----------2-------2--------------------0----2-----|
A|------------------------------3-------3-----------0-------------3-----|
E|-----------0------0-------------------------------0-------------------|

                   Bit 2

e|----------------|-----------------------------------------------------|
B|----------------|--0h3p0----------3-----------------------------------|
G|---2----2----0--|---------2---0------------------------------------4--|
D|--------0-------|---------0-----------4-----2--4---2---4---2--0----0--|
A|----------------|---------------------2------------3------------------|
E|--------3-------|------3-------------------------------------------3--|

e|----------------------------------------------------------------------|
B|---0h3p0------------3----------------------------0--------------------|
G|-----------2----0-------------------0---0---0--------2----------------|
D|----------------0-------4----2---4--2----------------0----------------|
A|------------------------2-----------3-------3-------------------------|
E|-------3--------------------------------------------------------------|

Repeat Bit 1
Tap to rate this tab
# A B C D E F G H I J K L M N O P Q R S T U V W X Y Z