Song name
# A B C D E F G H I J K L M N O P Q R S T U V W X Y Z

Teri Moise - Star tab

-------------------------------------------------------------------------------
			     STAR - Hellyeah
-------------------------------------------------------------------------------
Tabbed by: zerstören
Email:gergar10@hotmail.com

Tuning: way down to drop A# or Bb

A beautiful and powerful song by hellyeah,
this song is sweet when you play this song to your girlfriend
enjoy guys...

Intro/Verse

C |--------------------------------------------------------|
G |--------------------------------------------------------|
D#|--5/7-7---7/5-7---7/5-5---------------------------------|
A#|--5/7-7---7/5-7---7/5-5----3-2-3---3-2-3---3-5-5--------|
F |--3/5-5---5/3-5---5/3-3----3-2-3---3-2-3---3-5-5--------|
A#|---------------------------3-2-3---3-2-3---3-5-5--------|

C ---------------------------------------------------------|
G ---------------------------------------------------------|
D#---5/7-7---7/5-7---7/5-5---------------------------------|
A#---5/7-7---7/5-7---7/5-5----3-2-3---3-2-3---3-2-2--------|
F ---3/5-5---5/3-5---5/3-3----3-2-3---3-2-3---3-2-2--------|
A#----------------------------3-2-3---3-2-3---3-2-2--------|x3

Chorus

C |--------------------------------------------------------|
G |--------------------------------------------------------|
D#|--------------------------------------------------------|
A#|--0-0--0h2p0---0-0--0h2p0-3---3-3--3/5-3---3-3--3/5-3-2-|
F |--0-0--0h2p0---0-0--0h2p0-3---3-3--3/5-3---3-3--3/5-3-2-|
A#|--0-0--0h2p0---0-0--0h2p0-3---3-3--3/5-3---3-3--3/5-3-2-|X2

Intro/Verse
C |--------------------------------------------------------|
G |--------------------------------------------------------|
D#|--5/7-7---7/5-7---7/5-5---------------------------------|
A#|--5/7-7---7/5-7---7/5-5----3-2-3---3-2-3---3-5-5--------|
F |--3/5-5---5/3-5---5/3-3----3-2-3---3-2-3---3-5-5--------|
A#|---------------------------3-2-3---3-2-3---3-5-5--------|

C ---------------------------------------------------------|
G ---------------------------------------------------------|
D#---5/7-7---7/5-7---7/5-5---------------------------------|
A#---5/7-7---7/5-7---7/5-5----3-2-3---3-2-3---3-2-2--------|
F ---3/5-5---5/3-5---5/3-3----3-2-3---3-2-3---3-2-2--------|
A#----------------------------3-2-3---3-2-3---3-2-2--------|x2

Chorus

after fourth time
C |------------------------------------------------------------|
G |------------------------------------------------------------|
D#|------------------------------------------------------------|
A#|--0-0--0h2p0---0-0--0h2p0-3---3-3--3/5-3---3-3--3/5-3-2-----|
F |--0-0--0h2p0---0-0--0h2p0-3---3-3--3/5-3---3-3--3/5-3-2-----|
A#|--0-0--0h2p0---0-0--0h2p0-3---3-3--3/5-3---3-3--3/5-3-2-----|X4

Bridge

1st Guitar
C |-----------------------------------------------------|
G |-----------------------------------------------------|
D#|-----------------------------------------------------|
A#|-0------3---5----0------3---5----0-------0-----------|
F |-0------3---5----0------3---5----0-------0-----------|
A#|-0------3---5----0------3---5----0-------0-----------|


2nd Guitar				                                x2   Then
C |---------------------------------------------|--------------------------------------|
G |-------------------------0-------------------|-----0-4-5p4-0-4-0------0-4-5p4-0-4---|
D#|-----0--------0--------0--------0------------|---3------------------3---------------|
A#|---3---3----3---3----3--------3---3----------|--------------------------------------|
F |---------------------------------------------|--------------------------------------|
A#|-0--------0--------0--------0----------------|-0-------------------0----------------|


Solo

C |-----------------------------------------------------|
G |-----------------------------------------------------|
D#|--7~--9-7-0-9-10-0-9-10-12-10-xx-9-7-xx-7-5-x--------|
A#|----------------------------------------------7~-----|
F |-----------------------------------------------------|
A#|-----------------------------------------------------|
					                            Bend slowly and release
C |-----------------------------------------------------|
G |---------------------------------------19b-20~-------|
D#|--7~--9~--10~--12~--14~--16~--17~--19----------------|
A#|-----------------------------------------------------|
F |-----------------------------------------------------|
A#|-----------------------------------------------------|

C |-----------------------------------------------------|
G |--\15~--17~--18~--12~--13~--8~--10~------------------|
D#|-----------------------------------------------------|
A#|-----------------------------------------------------|
F |-----------------------------------------------------|
A#|-----------------------------------------------------|


THE 2nd GUITAR PLAYS THE BRIDGE PART

Final Chorus

C |--------------------------------------------------------|
G |--------------------------------------------------------|
D#|--------------------------------------------------------|
A#|--0-0--0h2p0---0-0--0h2p0-3---3-3--3/5-3---3-3--3/5-3-2-|
F |--0-0--0h2p0---0-0--0h2p0-3---3-3--3/5-3---3-3--3/5-3-2-|
A#|--0-0--0h2p0---0-0--0h2p0-3---3-3--3/5-3---3-3--3/5-3-2-|REPEAT TILL THE END


It's all
ENJOY GUYS
AND RATE IT


| /  slide up
| \  slide down
| h  hammer-on
| p  pull-off
| ~  vibrato
| +  harmonic
| x  Mute note
===============================================================================
Tap to rate this tab
# A B C D E F G H I J K L M N O P Q R S T U V W X Y Z