Song name
# A B C D E F G H I J K L M N O P Q R S T U V W X Y Z

Teriyaki Boyz - Va tab

Song Name:Va
Artst:Teriyaki Boyz
Album:OST Tokyo Drift

e----------------------------------------------------------|
B---------------8----------8-------------------------------|
G--7-7-7-7--7-8---7-7--7-8---7-7---------------------------|
D----------------------------------------------------------|
A----------------------------------------------------------|
E----------------------------------------------------------|


e----------------8------------8----------------------------|
B------8-10-10-----11-10-8-8----11-10-8-8------------------|
G--7-8-----------------------------------------------------|
D----------------------------------------------------------|
A----------------------------------------------------------|
E----------------------------------------------------------|

e------8----------8----------------------------------------|
G--7-8---7-7--7-8---7-7------------------------------------|
D----------------------------------------------------------|
A----------------------------------------------------------|
E----------------------------------------------------------|


If you like this tab email me to shehrinsayeed@yahoo.com
Tap to rate this tab
# A B C D E F G H I J K L M N O P Q R S T U V W X Y Z