Song name
# A B C D E F G H I J K L M N O P Q R S T U V W X Y Z

Teriyaki Boyz - Fast And The Furious tab

-------------------------------------------------------------------------------
			     The Fast and the Furius - Terriyaki Boyz
-------------------------------------------------------------------------------
Tabbed by: cursedangel
Email: hello_and_bye@hotmail.com

Tuning: Standard

Intro
e|-----------------|
B|--11--11--11--11-|
G|-----------------|  
D|-----------------|
A|-----------------|
E|-----------------|

e|---------11--------|
B|---11-12----11--11-|
G|-------------------|   x3
D|-------------------|
A|-------------------|
E|-------------------|



Rest of the Song xD
e|---------11--------|
B|---11-12----11--11-|
G|-------------------|   x5
D|-------------------|
A|-------------------|
E|-------------------|

e|--------11-13--13----16-14-13-11--11--16-14-13-11--11------|
B|--11-12----------------------------------------------------|
G|-----------------------------------------------------------|
D|-----------------------------------------------------------|
A|-----------------------------------------------------------|
E|-----------------------------------------------------------|
Tap to rate this tab
# A B C D E F G H I J K L M N O P Q R S T U V W X Y Z