Song name
# A B C D E F G H I J K L M N O P Q R S T U V W X Y Z

Terminal Karma - Abusing The Name Of Love tab

this is 100% correct

E-----------------------3--------------]
A--------------3----------2---2--------]
D-3--------------2---2------0--0-------]Reapet
G---2---0----------0-----------------0-]
B-----3----------------------------3---]
E--------------------------------3-----]

Verse

E-------------3--3-3-3--3--3-]
A-------3--3--2--2-2-2--2--2-]
D-3--3--2--2--0--0-0-0--0--0-] it reapets
G-2--2--0--0--0--0-0-0--0--0-]
B-3--3--3--3--3--3-3-3--3--3-]
E-3--3--3--3--3--3-3-3--3--3-]

Chorus

E-3-3-------1-1-1-1-1-|
A-2-2--0-0--3-3-3-3-3-|
D-0-0--2-2--3-3-3-3-3-|
G-0-0--2-2--2-2-2-2-2-|
B-3-3--1-1--1-1-1-1-1-|
E-3-3--0-0--1-1-1-1-1-|

Ending
E-----------------------3------|
A--------------3---------2-----|
D-3--------------2---2----0----|
G---2---0----------0-------0---|
B-----3---------------------3--|
E----------------------------3-|
Tap to rate this tab
# A B C D E F G H I J K L M N O P Q R S T U V W X Y Z