Song name
# A B C D E F G H I J K L M N O P Q R S T U V W X Y Z

Terminal Karma - Its Been Too Long tab

Distortion all the way thru

Intro - Palm muted

E-----------------------------------3333335533333355-5555557755555577-|
A-5555555555555555-2222220022222200-5555555555555555-7777777777777777-|
D-7777777777777777-4444444444444444-5555555555555555-7777777777777777-|
G-7777777777777777-4444444444444444-----------------------------------|
B---------------------------------------------------------------------|
E---------------------------------------------------------------------|

Chorus

E-----------------------------------3333335533333355-5555557755555577-|
A-5555555555555555-2222220022222200-5555555555555555-7777777777777777-|
D-7777777777777777-4444444444444444-5555555555555555-7777777777777777-|
G-7777777777777777-4444444444444444-----------------------------------|
B---------------------------------------------------------------------|
E---------------------------------------------------------------------|

verse
let ring
E------------------------------------3----------------5-|
A-5----------------2-----------------5----------------7-|
D-7----------------4-----------------5----------------7-|
G-7----------------4------------------------------------|
B-------------------------------------------------------|
E-------------------------------------------------------|
Tap to rate this tab
 
# A B C D E F G H I J K L M N O P Q R S T U V W X Y Z