Song name
# A B C D E F G H I J K L M N O P Q R S T U V W X Y Z

Terminal Karma - Mayhem tab

starts of not on OD

VERSE
E------------8-8--8--8--8--7-7-7-7-7-6-6-5-5)
A-5-5-5-5-5-10-10-10-10-10-9-9-9-9-9-8-8-7-7)repeats
D-7-7-7-7-7-10-10-10-10-10-9-9-9-9-9-8-8-7-7)
G-7-7-7-7-7---------------------------------)
B-------------------------------------------)
E-------------------------------------------)

Turn on the distortion

E-3-3-3-3-3-3-------------1-1-1-1-1-1------------)
A-5-5-5-5-5-5-1-1-1-1-1-1-3-3-3-3-3-3-3-3-3-3-3-3)repeats
D-5-5-5-5-5-5-3-3-3-3-3-3-3-3-3-3-3-3-5-5-5-5-5-5)
G-------------3-3-3-3-3-3-------------5-5-5-5-5-5)
B------------------------------------------------)
E------------------------------------------------)

Ending
Hold it (let it ring)
E------------------------------------------------)
A-5----------------------------------------------)
D-7----------------------------------------------)
G-7----------------------------------------------)
B------------------------------------------------)
E------------------------------------------------)

Verse
Chorus OD
Verse
Chorus OD
Verse OD
Tap to rate this tab
# A B C D E F G H I J K L M N O P Q R S T U V W X Y Z