Song name
# A B C D E F G H I J K L M N O P Q R S T U V W X Y Z

Terminal - City By The Sea tab

Tabbed by:Andrew
Email:

Tuning:eadgb
the other tabs were alright but this sounds better to me.. someone tab the other terminal songs!!!

e|-------------------------------------------------------------------------- |
B|7---7---3-5-3-5 --7-----7--------------------------------------------------|
G|--4---4-----------------------7-----7------------------------------------- |
D|---------------------5-----5-----5-----5-----------------------------------|
A|---------------------------------------------------------------------------|
E|---------------------------------------------------------------------------|


e|-------------------------------------------------------------------------- |
B|7---7---3-5-3-5 --7-----7--------------------------------------------------|
G|--4---4-----------------------7------------------------------------------- |
D|---------------------5-----5---------------------------------------------- |
A|---------------------------------------------------------------------------|
E|---------------------------------------------------------------------------|

e|---------------------------------------------------------------------------|
B|---------------------------------------------------------------------------|
G|-7-----------7--------------7----------------------------------------------|    (x8)
D|-4-----------4------(x8)----3----------------------------------------------|
A|-------------5-------------------------------------------------------------|
E|---------------------------------------------------------------------------|

I added the beginning chords also.. they sound right to me.. this is my first tab..
this band is awesome.. please someone rate this so i can see if i can correct it..
Tap to rate this tab
# A B C D E F G H I J K L M N O P Q R S T U V W X Y Z