Song name
# A B C D E F G H I J K L M N O P Q R S T U V W X Y Z

Terminal - Foster tab

-------------------------------------------------------------------------------
			     FOSTER - Terminal
-------------------------------------------------------------------------------

Tabbed by: Bear Busby
Email: sublimesurfr311@yahoo.com

Tuning: EADGBe

INTRO: 
Am  C  Em  G  Dsus
Am  G  Dsus


e|-----3-------3-------7-------3--------------------------------------|
B|-3-5-----3-5-----3-5-----3-5---5-3--5-3---1-1----5-5-3-1-1--0-0-----|
G|------------------------------------5-4---2-2----5-5-4-2-2--0-0-----|
D|--------------------------------------------------------------------|
A|--------------------------------------------------------------------|
E|--------------------------------------------------------------------|


VERSE:  
Am                       C
My legs are shaking as I stare into the waking
G       Dsus   Am             
Guess I always knew 
Am                     C
you were broken on the inside
                        G       Dsus         Am
Watched life passing you by but you couldn't move
    C                 Am       C
And no one stopped to ask you...


CHORUS:
          Am  C    Em    G  
If it was okay.......ohhhhh
Dsus         Am     G    Dsus    Am      C
Surely there had to be a way to smile, again


VERSE:
(Same pattern as first verse)

 Am C G Dsus Am (2x) C Am C 
 
Pale familiar faces remind me
We weren't always strangers
Burying a friend
Remember the year we all spent laughing
Feels guilty to feel happy
It never should
C                    Am        C 
But I didn't stop to ask you


CHORUS:
          Am  C    Em    G  
If it was okay.......ohhhhh
Dsus         Am     G     Dsus     
Surely there had to be a way 
         Am  C    Em     G
To feel okay........ohhhhh
Dsus         Am     G     Dsus
Surely there had to be a way


BRIDGE:
e|--------------------------|
B|--10--------13------------|
G|---x-(8x)----x-(8x)-------|(4x)
D|---7--------10------------|
A|--------------------------|
E|--------------------------|
Fmaj             Am
    To smile again
Fmaj             Am
    To let life in
Fmaj                   Am
  Through the closet closed
Fmaj             Am
Heaven from our souls


INTERLUDE:
(piano transcribed for guitar)
Am  C  Em  G  Dsus  Am  G


ENDING CHORUS:
G  Dsus Am  C  Em   G
I'm     okay
Dsus         Am     G     Dsus
Surely there had to be a way
Am   C  Em  G  
Okay
Dsus         Am     G     Dsus
Surely there had to be a way
Am   C  Em  G
Okay
Dsus  Am   G   Dsus  Am
Okay


OUTRO:
Am  C  G  Dsus (6x)

end on Am

Tap to rate this tab
# A B C D E F G H I J K L M N O P Q R S T U V W X Y Z