Song name
# A B C D E F G H I J K L M N O P Q R S T U V W X Y Z

Terminal - Not All Bad tab

Help us improve GuitareTab! Take a short survey!
-------------------------------------------------------------------------------
		           NOT ALL BAD - Terminal
-------------------------------------------------------------------------------

Tabbed by: Bear Busby
Email: sublimesurfr311@yahoo.com

Tuning: EADGBe

Intro/Verse:

Guitar1- Main Riff

e|--x---0---x---x-----x------------------------------------------------------|
B|--x---0---x---x-----x------------------------------------------------------|
G|--6---2---4---11-o--x---(5x)-----------------------------------------------|
D|--6---2---4---11--r-4------------------------------------------------------|
A|--4---0---2---9-----4------------------------------------------------------|
E|--x---x---x---x-----2------------------------------------------------------|


Guitar2 (Verse)

..Nothing's quite as hard...
e|---x---------x---------x---------------------------------------------------|
B|---x---------x---------x---------------------------------------------------|
G|---13-(16x)--16--(8x)--11-(8x)----repeat-once------------------------------|
D|---x---------x---------x---------------------------------------------------|
A|---11--------14--------9---------------------------------------------------|
E|---x---------x---------x---------------------------------------------------|

Chorus:

e|--x---0---x---x------------------------------------------------------------|
B|--x---0---x---x------------------------------------------------------------|
G|--6---1---4---x---(4x)-----------------------------------------------------|
D|--6---2---4---4------------------------------------------------------------|
A|--4---2---2---4------------------------------------------------------------|
E|--x---0---x---2------------------------------------------------------------|


2nd Verse:

  Repeat Main Riff and 2nd guitar part


Lead break:

e|---------------------------------------------------------------------------|
B|------------------------------------------5---5----------------------------|
G|-----4---4------/4--6-6--4-4--6-4------/6---6---6--------------------------|
D|--/6---6---6---------------------------------------------------------------|
A|---------------------------------------------------------------------------|
E|---------------------------------------------------------------------------|

e|-------------------------5-5-5-5---4-4-4-4--------12-----------------------|
B|--5--7-7--5--7^(9)-5------5-5-5-5---5-5-5-5-----12^--12--------------------|
G|----------------------------------------------------------11--/--(13)-13---|
D|----------------------------------------------------------x-(4x)-------x---|
A|----------------------------------------------------------9---/--(11)-11---|
E|---------------------------------------------------------------------------|

Repeat Chorus


Bridge:

e|-----0---------------------------------------------------------------------|
B|---4--4-4--(6x)------2-----------------------------------------------------|
G|--4-4--4-----------3--3-3--(2x)-----888/999\888/999\888\444----------------|
D|------------------4-4--4------------xxx/xxx\xxx/xxx\xxx\xxx-(3x)-----------|
A|------------------------------------666/777\666/777\666\222----------------|
E|---------------------------------------------------------------------------|


e|---------------------------------------------------------------------------|
B|---------------------------------------------------------------------------|
G|------888/999\888/999\888/-11-11-11-11-11-11-11-11-11-11-------------------|
D|------xxx/xxx\xxx/xxx\xxx/-x--x--x--x--x--x--x--x--x--x--------------------|
A|------666/777\666/777\666/-9--9--9--9--9--9--9--9--9--9--------------------|
E|---------------------------------------------------------------------------|

When the Sun...
e|---------------------------------------------------------------------------|
B|---------------------------------------------------------------------------|
G|--11-\-9-\-8-\-4-4---------------------------------------------------------|
D|---x-\-x-\-x-\-x-x--(8x)---------------------------------------------------|
A|---9-\-7-\-6-\-2-2---------------------------------------------------------|
E|---------------------------------------------------------------------------|

e|---------------------------------------------------------------------------|
B|---------------------------------------------------------------------------|
G|-4-4-4-3-------------------------------------------------------------------|
D|-4-4-4-4-2-2-2-2-2-2-2-----------------------------------------------------|
A|-2-2-2-1-2-2-2-2-2-2-2-----------------------------------------------------|
E|---------0-0-0-0-0-0-0-----------------------------------------------------|


Bridge Chorus:

Palm Muted

e|---------------------------------------------------------------------------|
B|---------------------------------------------------------------------------|
G|--66666666----------44444444-----------------------------------------------|
D|--66666666-22222222-44444444-44444444----(4x)------------------------------|
A|--44444444-22222222-22222222-44444444--------------------------------------|
E|-----------00000000----------22222222--------------------------------------|


Last Chorus:

e|--x---0---x---x------------------------------------------------------------|
B|--x---0---x---x------------------------------------------------------------|
G|--6---1---4---x---(4x)-----------------------------------------------------|
D|--6---2---4---4------------------------------------------------------------|
A|--4---2---2---4------------------------------------------------------------|
E|--x---0---x---2------------------------------------------------------------|


Outro

e|----------0-0-00-----------------------------0-----------------------------|
B|----------0-0-00-----------------------------0-----------------------------|
G|--4-4-44--1-1-11--4-4-44-------------4-4-4-3-1-----------------------------|
D|--4-4-44--2-2-22--4-4-44-4-4-44------4-4-4-4-2-----------------------------|
A|--2-2-22--2-2-22--2-2-22-4-4-44------2-2-2-1-2-----------------------------|
E|----------0-0-00---------2-2-22--------------0-----------------------------|




| /  slide up
| \  slide down
| h  hammer-on
| p  pull-off
| ~  vibrato
| +  harmonic
| x  Mute note
===============================================================================
Related for Not All Bad tab